Something Borrowed, Something Blue

Ben lee

Get Something Borrowed, Something Blue chords

  			This seems too easy (goddamn pop formula!)- maybe im missing something 
E-------------------------------- 
B---3---3/4\3----1-----1--------- 
G-------------------------------- 
D-------------------------------- (many times) 
A-3---3--------1---0-----0------- 
E--------------------1-----------  
E--------------------------------- 
B----1-----1---------------------- 
G--------------------------------- 
D--------------------------------- 
A--1---0-----0-------------------- 
E--------1------------------------ 
"something borrowed something..." 
   I get the feeling i could leave you on the interstate