Tab by: Chi (Lueng Chiu). Have fun! 
Main riff: 
Chord:     
E:      --8---- -------- --6---8- (-6)(-8) --x----- - x----- - x----- --x----- 
A:      -10---- -------- --8--10- (-8)(10) --8----- --8----- --8----- --8----- 
D:      -10---- -------- --8--10- (-8)(10) -10----- -10----- -10----- -10----- 
G:      --9---- -------- --7---9- (-7)(-9) -10----- -10----- -10----- -10----- 
B:      --8---- -------- --6---8- (-6)(-8) -10----- -10----- -10----- -10----- 
e:      --8---- -------- --6---8- (-6)(-8) --8----- --8----- --8----- --8----- 
Strumm:   v                v   v   (v) (v)   v ^ v v ^         v ^ v v ^ 
Bar:    1       2        3        4        1        2        3        4 
Chorus riff (met dank aan Sander): 
Chord:         
E:      --8---- --8----- --8----- -------- --x----- --x----- --x----- -------- 
A:      -10---- -10----- -10----- -------- --x----- --x----- --x----- -------- 
D:      -10---- -10----- -10----- -------- --8----- --8----- --8----- -------- 
G:      --9---- --9----- --9----- -------- --8----- --8----- --8----- -------- 
B:      --8---- --8----- --8----- -------- --8----- --8----- --8----- -------- 
e:      --8---- --8----- --8----- -------- -11----- -10----- --8----- -------- 
Strumm:   v       v        v                 v ^ v    v ^ v    v 
Bar:    1       2        3        4        1        2        3        4 
Intro: 
Chorus riff (x 2) 
Main riff 
All you got is this  moment 
yesterday 
 want 
Chorus riff: 
 So slide over here 
And  moment 
 Your moves are so raw 
 know 
I've got to let you know  
Bridge (main riff): 
 tonight 
 sleeping 
 you girl 
Bridge part 2 (main riff): 
 How do you feel? 
 I'm lonely 
 What do you think? 
 Can't take it all 
 Whatcha gonna do? 
 Gonna live my life 
Chorus 
Bridge 
Bridge part 2 (x 2) 
Chorus