INTRO and VERSE:  the pattern is , as in:
Suicide blonde,    was the color of her hair
Like a cheap distraction, for a new affair
CHORUS:  (?) alternating through line
then verse, harmonica solo, verse, chorus
SOLO:
E|---0---0----0----0----0-
B|-0---0----0----0----0---
G|------------------------  repeated many times until
D|------------------------
A|------------------------
E|------------------------
E|-12---7--10---5--7---3--5---
B|----------------------------
G|----------------------------
D|----------------------------
A|----------------------------
E|----------------------------
INTRO and VERSE:  the pattern is , as in:
Suicide blonde,    was the color of her hair
Like a cheap distraction, for a new affair
CHORUS:  (?) alternating through line
then verse, harmonica solo, verse, chorus
SOLO:
E|---0---0----0----0----0-
B|-0---0----0----0----0---
G|------------------------  repeated many times until
D|------------------------
A|------------------------
E|------------------------
E|-12---7--10---5--7---3--5---
B|----------------------------
G|----------------------------
D|----------------------------
A|----------------------------
E|----------------------------
repeat chorus and fade