solo 
E|--------------------------------------------------------- 
B|--------------------------------------------------------- 
G|--------------------------------------------------------- 
D|-------2-----1h2p1----------------2/4h6--7--6------------ 
A|-------------------2-------0------------------7-4-------- 
e|--0--------------------4--------------------------7------ 
E|-------------------7----------------------------------0-- 
B|---------------------7--------------0------0---9b10r9---- 
G|--------9------8/9-----9\8p6\4--2/4----4/6--------------- 
D|------9-------------------------------------------------- 
A|--7h9---------------------------------------------------- 
e|--------------------------------------------------------- 
Hope that helps.  It can be played over different strings but 
I think this sounds best.  I'm only 16 and this is only the  
2nd solo I've ever tabbed so it might not be exact... but it's 
close. 
Matt Schilling 
[email protected]