INTRO 
E------------------------------| 
B--------------------------3---| 
G-------0-2---------------2----| 
D---4------4-2-4-0--4--0-4-----| 
A--0------------------0--------| 
E------------------------------| 
PICKING IN FIRST VERSE 
E-------2---------------------------------------------------0---------| 
B------3---------------3-----2------3--3----0---2-0--3-----2----3-----| 
G-----2-----------4-0-4------------2--2---0-0-3-0----2----2----2------| 
D--0-4------0----2--------------0-4-----4--0---0-----0---2----0-------| 
A--------------------------0------------------------------------------| 
E------------------------------------2----3---3-----------------------| 
STEEL SOLO (arranged for standard guitar) (first instrumental) 
E-------9b-9-7h9p7-7\5-5-5--7-5-5----5------------9b-9-7h9p7-7\5-5-5-- 
B--------------------------------8-8--8-8-7-7------------------------- 
G--7-7-7---------------------------------------7-7-------------------- 
D--------------------------------------------------------------------- 
A--------------------------------------------------------------------- 
E--------------------------------------------------------------------- 
E--8-8/9--7-5-3-2-----------| 
B---------------------------| 
G-------9-7-6-4-2-----------| 
D-----------------------0---| 
A------------------0-2-4----| 
E---------------------------| 
GUITAR SOLO (instrumental at end of song) (play though this twice) 
E--10---9---------------------9-7---------------10---9--------------------- 
B-----------12--10-------------8-8-10-8---7-7------------12--10------------ 
G----11--11---11--11-9-6-9-6-----------9-6-7-7----11--11---11--11-9-6-9-6-- 
D-------------------------------------------------------------------------- 
A-------------------------------------------------------------------------- 
E-------------------------------------------------------------------------- 
              * second time through ends on this note  
E---------7-9-10--10-----| 
B-----10-8-8-8-----------| 
G--9-6----------11--11---| 
D------------------------| 
A------------------------| 
E------------------------| 
ACOUSTIC GUITAR ENDING 
E------------------------| 
B--------------------3---| 
G--0-2--------------2----| 
D-----4-2-4-0-4--0-4-----| 
A---------------0--------| 
E------------------------|