Sorry Doesn't Cut It 
Tab by Al [email protected] 
Intro/Verse (Az) 
|-----5------5---| 
|---3--3---3--3--| 
|--4------0------| 
|----------------| 
|----------------| 
|----------------|x heaps 
then both guitars 
|---------------| 
|---------------| 
|---------------| 
|---------------| 
|--555555555-5--| 
|--333333333-3--| 
pm............ 
Chorus (Bryce) 
|------------------------------------------------------------------------ 
|------------------------------------------------------------------------ 
|------------------------------------------------------------------------ 
|--7~-----4~---------------------------------7-7-7-7-7-7-7-4-4-4-4-4-4-4- 
|--5~-----2~-----7-7-7-7-7-7-7-5-5-5-5-5-5-5-5-5-5-5-5-5-5-2-2-2-2-2-2-2- 
|----------------5-5-5-5-5-5-5-3-3-3-3-3-3-3----------------------------- 
-------------------------------| 
-------------------------------| 
-------------------------------| 
-------------------------------| 
--7-7-7-7-7-7-7-5-5-5-5-5-5-5--| 
--5-5-5-5-5-5-5-3-3-3-3-3-3-3--| 
Chorus (Az) 
|----------------------------------------------------------------------| 
|----------------------------------------------------------------------| 
|---------------------------------------------------/14-14\7-11\-------| 
|--7~-----4~---------------------------------7-7-7-7--X--X-X--X--------| 
|--5~-----2~-----7-7-7-7-7-7-7-5-5-5-5-5-5-5-5-5-5-5/12-12\5/-9\--etc--| 
|----------------5-5-5-5-5-5-5-3-3-3-3-3-3-3---------------------------| 
Break (Az) 
|------------------------| 
|------------------------| 
|--4-44h5p4-7-5-4-4h5p4--| 
|------------------------| 
|------------------------| 
|------------------------| 
Verse 2 
(Bryce) 
|------------------------------| 
|------------------------------| 
|------------------------------| 
|--444444444444----------------| 
|--222222222222-5555555555555--| 
|---------------3333333333333--|x4 
pm........................... 
Pre-Chorus 
|-------------------------------------| 
|-------------------------------------| 
|-------------------------------------| 
|-------------------------------------| 
|--7~------5~------7~------5555555-5--| 
|--5~------3~------5~------3333333-3--| 
pm                         ......... 
Chorus 2 -Pretty much the same 
Bridge 
(Bryce) 
|-------------------------------| 
|-------------------------------| 
|-------------------------------| 
|--44444------------------------| 
|--22222--------55555-----------| 
|---------------33333-----------|x4 then countinuously palm mute 
pm.....         ..... 
(Az) 
|-------10-9---------10-9-------|--10-9----10-9----10-9--------| 
|------------10-----------10-7--|-------10------10-----10-etc--| 
|-------------------------------|------------------------------| 
|-------------------------------|------------------------------| 
|-------------------------------|------------------------------| 
|-------------------------------|------------------------------| 
both guitars 
|-------------------------------------| 
|-------------------------------------| 
|-------------------------------------| 
|-------------------------------------| 
|--7-7-7-7-7-7-7-7-7-7-7-7-7-7-7-7-7--| 
|--5-5-5-5-5-5-5-5-5-5-5-5-5-5-5-5-5--| 
Chours 3 - Same as before 
Outro 
|----------------------------------------------------------------------- 
|----------------------------------------------------------------------- 
|----------------------------------------------------------------------- 
|--4-4-4-4-4-4-4-4-4---------------------------------------------------- 
|--2-2-2-2-2-2-2-2-2-5-5-5-5-5-5-5-5------7-7-7-7-7-7-7-7-7-7-7-7-7-7-7- 
|--------------------3-3-3-3-3-3-3-3--x4--5-5-5-5-5-5-5-5-5-5-5-5-5-5-5- 
------| 
------| 
------| 
--7~--| 
--5~--| 
------| 
i'll be updating this one ;)