Intro/ Verse chords:(bass starts first) 
e:--0-0---0-0-0---0-0---0-0-0-0------ 
B:-0-0---0-0-0---5-5---0-0-0-0------ 
G:-1-1---4-4-4---6-6---6-6-6-6------ 
D:-2-2---4-4-4---6-6---7-7-7-7------ 
A:-2-2---2-2-2---4-4---7-7-7-7------ 
E:-0-0-------------------5-5-5-5------ 
   Today a boy..... ...town... 
this goes on for a bit, then the chorus. 
Chorus: 
e:--0-0--0-0--0-0------- 
B:--0-0--5-5--0-0------- 
G:--4-4--6-6--6-6------- 
D:--4-4--6-6--7-7------- 
A:--2-2--4-4--7-7------- 
E:--------------5-5------- 
  and everybody....... 
then there's another verse 
then the chorus again, 
then the Bridge. 
Bridge: 
e:--0-0-0-0--------0-0-0-0---- 
B:--0-0-0-0--------0-0-0-0---- 
G:--3-3-3-3--------6-6-6-6---- 
D:--4-4-4-4--------7-7-7-7---- 
A:--4-4-4-4--------7-7-7-7---- 
E:--2-2-2-2--------5-5-5-5---- 
  please, take.....give me your.... 
then another chorus 
then the outro, which is the bridge, but with different words. 
then it ends. 
here's the words. 
Verse: 
today a boy outgrew his town 
they say his sadness was his sign 
it used to happen every day or so they say 
he's gonna take it all this time 
Chorus: 
and everybody feels it 
and everybody knows 
there are those that have the flame 
and there's those that just wanna get close 
Verse: 
today a boy became a man 
'cause prepared himself to fail 
he escaped one night, 
just trying to save his life, 
i am the hero of this tale 
Chorus: 
and everybody feels it 
and everybody knows 
there are those that have the flame 
and there's those that just wanna get close 
Bridge: 
please, take off your clothes, 
give me your hand 
please, sleep in my bed 
please understand 
i'm gonna lay down the law 
Chorus: 
'cause everybody feels it 
and everybody knows 
there are those that have the flame 
and there's those that just wanna get close 
Outro: 
closer to god 
closer for sure 
close your eyes 
and watch me become one 
email me if there's any problems. 
Snof.