Intro 
e|-----2---|-----2---|-----2---|-----2---| 
B|---------|---------|---------|---------| 
G|---------|-0-0---0-|-2-2---2-|-0-0---0-| 
D|-------0-|---------|---------|---------| 
A|---------|---------|---------|---------| 
E|---------|---------|---------|---------| 
Verse 
e|-----2---|-----2---|-----2---|-----2---| 
B|---------|---------|---------|---------| 
G|---------|-0-0---0-|-2-2---2-|-0-0---0-| 
D|-0-0---0-|---------|---------|---------| x8 
A|---------|---------|---------|---------| 
E|---------|---------|---------|---------| 
Chorus 
e|-----2---|-----2---|-----2---|-----2---| 
B|---------|---------|---------|---------| 
G|---------|---------|-0-0---0-|-0-0---0-| 
D|-2-2---2-|-2-2---2-|---------|---------| x3 
A|---------|---------|---------|---------| 
E|---------|---------|---------|---------| 
e|-----2---|-----2---|-----2---|-----2---| 
B|---------|---------|---------|---------| 
G|---------|---------|-0-0---0-|-2-2---2-| 
D|-2-2---2-|-2-2---2-|---------|---------| 
A|---------|---------|---------|---------| 
E|---------|---------|---------|---------| 
e|-----2---|-----2---|-----2---|-----2---| 
B|---------|---------|---------|---------| 
G|---------|-0-0---0-|-2-2---2-|-0-0---0-| 
D|-0-0---0-|---------|---------|---------| x2 
A|---------|---------|---------|---------| 
E|---------|---------|---------|---------| 
Verse 
e|-----2---|-----2---|-----2---|-----2---| 
B|---------|---------|---------|---------| 
G|---------|-0-0---0-|-2-2---2-|-0-0---0-| 
D|-0-0---0-|---------|---------|---------| x8 
A|---------|---------|---------|---------| 
E|---------|---------|---------|---------| 
Chorus 
e|-----2---|-----2---|-----2---|-----2---| 
B|---------|---------|---------|---------| 
G|---------|---------|-0-0---0-|-0-0---0-| 
D|-2-2---2-|-2-2---2-|---------|---------| x3 
A|---------|---------|---------|---------| 
E|---------|---------|---------|---------| 
e|-----2---|-----2---|-----2---|-----2---| 
B|---------|---------|---------|---------| 
G|---------|---------|-0-0---0-|-2-2---2-| 
D|-2-2---2-|-2-2---2-|---------|---------| 
A|---------|---------|---------|---------| 
E|---------|---------|---------|---------| 
e|-----2---|-----2---|-----2---|-----2---| 
B|---------|---------|---------|---------| 
G|---------|-0-0---0-|-2-2---2-|-0-0---0-| 
D|-0-0---0-|---------|---------|---------| 
A|---------|---------|---------|---------| 
E|---------|---------|---------|---------| 
e|-----2---|-----2---|-----2---|-----2---| 
B|---------|---------|---------|---------| 
G|---------|---------|-0-0---0-|-2-2---2-| 
D|-2-2---2-|-2-2---2-|---------|---------| 
A|---------|---------|---------|---------| 
E|---------|---------|---------|---------| 
e|-----2---|-----2---|-----2---|-----2---| 
B|---------|---------|---------|---------| 
G|---------|-0-0---0-|-2-2---2-|-0-0---0-| 
D|-0-0---0-|---------|---------|---------|  
A|---------|---------|---------|---------| 
E|---------|---------|---------|---------| 
Instrumental 
e|-----2---|-----2---|-----2---|-----2---| 
B|---------|---------|---------|---------| 
G|---------|-0-0---0-|-2-2---2-|-0-0---0-| 
D|-0-0---0-|---------|---------|---------| repeat 
A|---------|---------|---------|---------| 
E|---------|---------|---------|---------|