Transcribed by Paul @ OzTabs ([email protected]) 
www.ozmusic-central.com.au/oztabs 
Transcribed: 25 May 2004 
Notes: I can't get this tab to sound spot on, I'm assuming 
it's in a different tunning, but you can play along to it 
with a capo on the 4th fret. The tab is relative to the capo. 
Comments & corrections welcome. 
MAIN PROGRESSION: 
E-|---------------------------------|- 
B-|------0-0-0-0-0------------------|- 
G-|-0-0--0-0-0-0-0--0-0--0-0-0-0-0--|- 
D-|-5-5--5-5-5-5-5--5-5--5-5-5-5-5--|- 
A-|-2-2--2-2-2-2-2--2-2--2-2-2-2-2--|- 
E-|-3-3--3-3-3-3-3--0-0--0-0-0-0-0--|- 
VARIATION: 
E-|------------------------------------------------------------------|- 
B-|------------------------------------------------------------------|- 
G-|------2-0-2-0-2-------2-0-2-0-2---0-0-------------0-0-------------|- 
D-|-0-0--0-0-0-0-0--0-0--0-0-0-0-0---2-2--5-2-5-2-5--2-2--5-2-5-2-5--|- 
A-|-2-2--x-x-x-x-x--2-2--x-x-x-x-x---2-2--2-2-2-2-2--2-2--2-2-2-2-2--|- 
E-|-3-3--3-3-3-3-3--3-3--3-3-3-3-3---0-0--0-0-0-0-0--0-0--0-0-0-0-0--|- 
BRIDGE: 
E-|------------------------------------------------------------------|- 
B-|------------------------------------------------------------------|- 
G-|-0-0--0-0-0-0-0---0-0--0-0-0-0-0---9-9--9-9-9-9-9--9-9--9-9-9-9-9-|- 
D-|-0-0--0-0-0-0-0---0-0--0-0-0-0-0----------------------------------|-(x 2) 
A-|-2-2--2-2-2-2-2---3-3--3-3-3-3-3---7-7--7-7-7-7-7--7-7--7-7-7-7-7-|- 
E-|-3-3--3-3-3-3-3---3-3--3-3-3-3-3---0-0--0-0-0-0-0--0-0--0-0-0-0-0-|- 
E-|----------------------------------------------------|- 
B-|----------------------------------------------------|- 
G-|--------------5-5--5-5-5---9-9--9-9-9---9-9--9-9-9--|- 
D-|-5-5--5-5-5---5-5--5-5-5---9-9--9-9-9---9-9--9-9-9--|-(x 2) 
A-|-5-5--5-5-5---3-3--3-3-3---7-7--7-7-7---7-7--7-7-7--|- 
E-|-3-3--3-3-3---3-3--3-3-3---7-7--7-7-7---7-7--7-7-7--|-