Transcribed by Paul @ OzTabs ([email protected]) 
www.ozmusic-central.com.au/oztabs 
Notes: Tune your low E down to  - tuning DADGBE 
The below is all the parts of the song - listen to the CD to 
figure out how it all fits together. Comments & corrections 
welcome. 
INTRO: 
E-|-0-0-0-0-0-0-0-0-0-0-0-0-0-0-0-0-0--0--0--0--0--0--0--0--|- 
B-|/5-5-5-5-5-5-5-5/8-8-8-8-8-8-8-8/10-10-10-10-10-10b11b11-|- 
G-|---------------------------------------------------------|- 
D-|---------------------------------------------------------|- 
A-|---------------------------------------------------------|- 
D-|---------------------------------------------------------|- 
E-|--------------------|- 
B-|--------------------|- 
G-|--------------------|- 
D-|-2-2--5--5--2-2-0-0-|- 
A-|-2-2--5--5--2-2-0-0-|-(x 4) 
D-|-2-2--5--5--2-2-0-0-|- 
1ST VERSE: 
E-|-0-0-0-0-0-0-0-0-0-0-0-0-0-0-0-0-|--------------------|- 
B-|-5-5-5-5-5-5-5-5/8-8-8-8-8-8-8-8-|--------------------|- 
G-|---------------------------------|--------------------|- 
D-|---------------------------------|-2-2--5--5--2-2-0-0-|- 
A-|---------------------------------|-2-2--5--5--2-2-0-0-|- (x 2) 
D-|---------------------------------|-2-2--5--5--2-2-0-0-|- 
E-|--------------------|-----------|- 
B-|--------------------|-----------|- 
G-|--------------------|-----------|- 
D-|-2-2--5--5--2-2-0-0-|-5-5-5-5-5-|- 
A-|-2-2--5--5--2-2-0-0-|-5-5-5-5-5-|- 
D-|-2-2--5--5--2-2-0-0-|-5-5-5-5-5-|- 
CHORUS: 
E-|------------------------------|- 
B-|------------------------------|- 
G-|------------------------------|- 
D-|-0--0-0-7--7-7-2--2-2--2--2-2-|- 
A-|-0--0-0-7--7-7-2--2-2--2--2-2-|-(x 4) 
D-|-0--0-0-7--7-7-2--2-2--2--2-2-|- 
E-|-0-0-0-0-0-0-0-0-0-0-0-0-0-0-0-0-|--------------------|--------------------|- 
B-|-5-5-5-5-5-5-5-5/8-8-8-8-8-8-8-8-|--------------------|--------------------|- 
G-|---------------------------------|--------------------|--------------------|- 
D-|---------------------------------|-2-2--5--5--2-2-0-0-|-2-2--5--5--2-2-0-0-|- 
A-|---------------------------------|-2-2--5--5--2-2-0-0-|-2-2--5--5--2-2-0-0-|- 
D-|---------------------------------|-2-2--5--5--2-2-0-0-|-2-2--5--5--2-2-0-0-|- 
2ND VERSE: 
E-|-0-0-0-0-0-0-0-0-0-0-0-0-0-0-0-0-|--------------------|- 
B-|-5-5-5-5-5-5-5-5/8-8-8-8-8-8-8-8-|--------------------|- 
G-|---------------------------------|--------------------|- 
D-|---------------------------------|-2-2--5--5--2-2-0-0-|- 
A-|---------------------------------|-2-2--5--5--2-2-0-0-|- (x 2) 
D-|---------------------------------|-2-2--5--5--2-2-0-0-|- 
E-|--------------------|-----------|- 
B-|--------------------|-----------|- 
G-|--------------------|-----------|- 
D-|-2-2--5--5--2-2-0-0-|-5-5-5-5-5-|- 
A-|-2-2--5--5--2-2-0-0-|-5-5-5-5-5-|- 
D-|-2-2--5--5--2-2-0-0-|-5-5-5-5-5-|- 
BRIDGE: (with delay effect) 
E-|--------------------------------------------------------------------------------|- 
B-|----------------------------------------12~~~~~~~-11~~~~~~~-12~~~~~~~-11~~~~~~~-|- 
G-|--------------------------------------------------------------------------------|- 
D-|-9~~~~~~~-8~~~~~~~~-9~~~~~~~-8~~~~~~~~------------------------------------------|- 
A-|--------------------------------------------------------------------------------|- 
D-|--------------------------------------------------------------------------------|-