Romeo and Juliet by Caustic Soda 
tabbed by endre bakken stovner ( [email protected] ) 
Im working on a Caustic soda site and if youve got anything cs related please email me. 
You can find my site at http://www.geocities.com/caustic_punk, 
but there is nothing there yet. 
You can find this mp3 at geocities.com/emoveggie/csrj.zip 
Intro 
e|-------------------------| 
B|-------------------------| 
G|-------------------------| 
D|---3-2---3-2-3-2---3-2---| 
A|-3-----3---------3-----3-| 
E|-------------------------| 
first riff 
8 8 8 8 8 8 8 8 
e|-----------------| 
B|-----------------| 
G|-5-5-----5-5-----| 
D|-5-5-3-3-5-5-3-3-| 
A|-3-3-3-3-3-3-3-3-| 
E|-----1-1-----1-1-| 
verse 
8 4 4 8 4 4 8 4 4 8 8 8 4 4 8 8 8 8 8 8 
e|------------------------------------------| 
B|------------------------------------------| 
G|-5------------5-5/--------------5---------| 
D|-5-10/5-7-7/5-5-5/5-7-3-5-5/3-5-5-3-3-5-5-| 
A|-3-10/5-7-7/5-3-3/5-7-3-5-5/3-5-3-3-3-5-5-| 
E|---8-/3-5-5/3-----3-5-1-3-3/1-3---1-1-3-3-| 2x 
chorus 
8 8 8 8 8 8 8 8 8 8 8 8 8 8 8 1 1 
e|-----------------------------------| 
B|-----------------------------------| 
G|-5-------5-------5-------7-7-------| 
D|-5-5-7-3-5-5-7-3-5-5-7-3-7-7-3-7-5-| 
A|-3-5-7-3-3-5-7-3-3-5-7-3-5-5-3-7-5-| 
E|---3-5-1---3-5-1---3-5-1-----1-5-3-| 
intro riff played slower 
e|-------------------------| 
B|---6-5---6-5-6-5---6-5---| 
G|-5-----5---------5-----5-| 
D|-------------------------| 
A|-------------------------| 
E|-------------------------|