Australia 
Mr Genius By Chevron Blue 
Intro/Bridge 
e-x-xx-x-x-x--xx--x-x--x--x- 
B-x-xx-x-x-x--xx--x-x--x--x- 
G-x-xx-x-x-x--910-1213-15-18 
D-3-56-8-1011-xx--x-x--x--x- 
A-x-xx-x-x-x--78--1011-13-16 
E-1-34-6-8-9--xx--x-x--x--x- 
e- 
B-                   -9 
G-10-10-10-8-10-10-10  -10-10-10-8   -8  8 
D-                                -10  10 -10-8 
A- 
E- 
Lead Verse Bit 
e- 
B- 
G-10-10-10-8   -8  -8     -10  -10-10-10-8-10 
D-          -10  10  -10-8   -8 
D- 
A- 
E- 
Chorus 
e---------------------- 
B-------9---------9-11- 
G-8--10--810-10-8------ 
D-10-8-------10-8-6-8-- 
A------------8--6------ 
E----------------------