Tabbed: Xero de Montaigne 
Tuning: Standard- EADGBe 
Chords: Am- 0 0 2 2 1 0 
         sounds OK- ie replace (3) with 0 
         - 0 3 3 2 1 0 
         0 3 2 3 1 0 
         0 2 1 2 0 0 
        Em- 0 2 2 0 0 0 
The following is a guitar version of the chords played by the strings opart of the song.  
   your own rhythm to make is sound a bit fuller. 
Intro:    (all single down strokes) 
Verse: 
Tears are falling            , Flashing (?)                   you're...If        lost... 
You took away                  , Pushing (?)                   you're...If you're lost... 
And you... Take away...        days.. 
You know I        ... around no more,              score 
And you... Take away...       days.. 
You know           ... around no more,                   , around no more,              score 
Chorus: 
    Tears are         from my,                   eyes... 
So     , Years       tried 
   You took           moment,                down 
Don't      lay--- me--- down--- 
Crazy, I'm      , I'm      , Im craaazzy--- 
Repeat Verse with different accents on lyrics 
Repeat Chorus 
Finish with 6x Crazy---'s 
---------------------------------------------------------------- 
Crazy - Cordrazime 
I normally try to stay clear of tabbing songs that don't have guitar, but this 
song works well acoustically, plus it was requested, so here it is. 
Nothing fancy, I've tabbed this as a 'strummer' rather than a 'widdly-widdly' 
song. 
I'll call this bit '@' to save my lazy fingers. 
E|------------------------------------------------------------------------------ 
B|-----1------------------------------------------------------------------------ 
G|-----2-----5------------------------------------------------------------------ 
D|---2---2/4---4\3-2p0---------------------------------------------------------- 
A|-0---------------------------------------------------------------------------- 
E|------------------------------------------------------------------------------ 
verse/chorus 
E|-0---0---0-0--3-3-3-3-|--3---3---3-3---3-3-3-3-|-0---0---0-0--0-0-0-0-|------- 
B|-1---1---1-1--1-1-1-1-|--0---0---0-0---3-3-0-0-|-3---3---3-3--3-3-3-3-|------- 
G|-2---2---2-0--0-0-0-0-|--0---0---0-0---0-0-0-0-|-2---2---2-2--2-2-2-2-|[email protected] 
D|-2---2---2-2--2-2-2-2-|--0---0---0-0---0-0-0-0-|-0---0---0-0--3-3-3-3-|------- 
A|-0---0---0-0--0-0-0-0-|--2---2---2-2---2-2-2-2-|-3---3---3-3--0-0-0-0-|------- 
E|----------------------|--3---3---3-3---3-3-3-3-|-1---1---1-1--1-1-1-1-|------- 
other chorus ('tears are falling from my, oh now from these eyes...') 
E|-----|---0----------------|-2---2---2-2--2-2-2-2-|-1---1---1-1--1-1-1-1-|----- 
B|-----|---1---1-1--1-1-1-1-|-0---0---0-0--0-0-0-0-|-1---1---1-1--1-1-1-1-|----- 
G|-----|---0---0-0--3-3-3-3-|-2---2---2-2--2-2-2-2-|-2---2---2-2--2-2-2-2-|----- 
D|-----|---0h2-2-2--2-2-2-2-|-1---1---1-1--1-1-1-1-|-3---3---3-3--3-3-3-3-|----- 
A|-0-2-|-3-3---3-3--3-3-3-3-|-2---2---2-2--2-2-2-2-|-3---3---3-3--3-3-3-3-|----- 
E|-----|--------------------|----------------------|-1---1---1-1--1-1-1-1-|----- 
(you can work out the rhythm now...) 
E|-0------|-0--|-2--|-1--|-0-------|-------------------------------------------- 
B|-1------|-1--|-0--|-1--|-0-------|-------------------------------------------- 
G|-2------|-0--|-2--|-2--|-1-------|[email protected] 
D|-2------|-2--|-1--|-3--|-2-----0-|-------------------------------------------- 
A|-0--0-2-|-3--|-2--|-3--|-2-----2-|-------------------------------------------- 
E|--------|----|----|-1--|-0-----0-|-------------------------------------------- 
Matt Estela ( [email protected] )