[email protected] 
bass riff 
G-------------------- 
D----------0---0h2--- 
A-----0h2----2------- 
E-0--0--------------- 
guitar riff pretty much follows suit (sorta)... 
verse riff 
G----------------------------------------------------------- 
D ------------------------------------------------0-----0--02-- 
A -----7--2-55555--0-44444--0-33332-0----------2------2-------- etc... 
E --0---------------------------------3--0---0----------------- 
Well i haven't been over this side of town for a long time 
I said I haven't been in this neck of the woods for obvious reasons 
    ) 
And I'm surprised by the amount of beautiful girls 
I said the inner west - they got the beautiful girls 
--7--6-5--4-3-2-- 
They got the long hair the short hair the straight hair and the curls oh  
yeah 
I said the inner west man - they got the beautiful girls 
      ... 
And I wish I'd never seen them... wah 
Well me, I live in the kings cross region 
And over here... over here... no one is looking nice 
And if they do man don't believe them 
Ah, there's no beauty in this here location 
I said the inner west - they got the beautiful girls 
--7--6-5--4-3-2-- 
They got the long hair the short hair the straight hair and the curls oh  
yeah 
I said the inner west man - they got the beautiful girls 
      ... 
And I wish I'd never seen them... 
I said the inner west - they got the beautiful girls 
--7--6-5--4-3-2-- 
They got the long hair the short hair the straight hair and the curls oh  
yeah 
I said the inner west man - they got the beautiful girls 
                  E... 
And I wish I'd never seen them... wah 
No, no, no, no, no, no, no, no, no, no, no, no, no, no, no, no, no, no, no,  
no, no 
I?ve tried to fit it all in here it was a little hard. 
Note to self: All chords played on guitar are barre chords 
------------------------------------------ 
Song: Inner West 
Artist: Dave McCormack 
Album: Candy 
Submitted by: [email protected] 
This is the main riff (100% right) 
e------------------------------ 
B------------------------------ 
G------------------------------ 
D----------0---0h2------------- 
A-----0h2----2----------------- 
E-0--0------------------------- 
Hit the first E hard, softer on the second. 
I have only heard the song twice, theres a rhythm section that decends 
if i was to guess it would be something like this: 
The riff should be right but i have no idea on the rhythm section.