Notes: Triple J are really flogging this one...and after 
hearing it 100 times it kinda grows on you. Fun song to play 
along to. Comments & corrections welcome. 
MAIN CHORDS:             KEYBOARD RIFF: 
E-|-----------------|-  -|-------------------|-  
B-|-----------------|-  -|-------------------|- 
G-|---------7---4---|-  -|-14-13-14-13--11---|- 
D-|-7---4---7---4---|-  -|-------------------|- 
A-|-7---4---5---2---|-  -|-12-11-12-11--9----|- 
E-|-5---2-----------|-  -|-------------------|- 
LEAD BIT NEAR START: 
E-|------------------|- 
B-|------------------|- 
G-|------------------|- 
D-|-----0-2-4-6-7-4--|- 
A-|-2-4--------------|- 
E-|------------------|- 
END OF CHORUS BITS: 
E-|----------------------------------|- 
B-|----------------------------------|- 
G-|----------------------------------|- 
D-|-2-----------------------5--5--7--|- 
A-|-2-----------------------5--5--7--|- 
E-|-0--0-2p0-0-3p0-0-2p0-0--3--3--5--|- 
LEAD BREAK: 
E-|------------------------------------------|- 
B-|------------------------------------------|- 
G-|------------------------------------------|- 
D-|------------------------------------------|- 
A-|------------------------------------------|- 
E-|-5~~-5/7\5/9--7-9-10-10-10--9-8-7--5-7-5--|- 
The bridge bit is just  
OUTRO BIT: 
E-|--------------------------------------------------|- 
B-|--------------------------------------------------|- 
G-|---------7---7------------------------------------|- 
D-|-7---4---7---7---2-----------------------5--5--7--|- 
A-|-7---4---5---5---2-----------------------5--5--7--|- 
E-|-5---2-----------0--0-2p0-0-3p0-0-2p0-0--3--3--5--|-