INTRO: riff 1 
e|----------------------------------------------------------------| 
B|----------------------------------------------------------------| 
G|---9----------------7-------------------------------------------| 
D|--7-7-10-9-9------9---7-10-9-10-9-10-9-10-9-10-9----------------| 
A|-------------10-9-----------------------------------------------| 
E|----------------------------------------------------------------| 
INTRO / VERSE: 
CHORUS: 
 x3 (oh oh oh oh bits) 
 (palm mute tail of it...) 
VERSE 
CHORUS 
VERSE 
CHORUS 
OUTRO:  
Play octaves up high over outro chorus -  
END.  
* CHORD EXPLANATION: 
The . 
The  power chord with the first finger off, leaving the open A string. 
e|------|-------| 
B|------|-------| 
G|---7--|--7----| 
D|---7--|--7----| 
A|-4/5--|--0----| 
E|------|-------| 
This song is on "Grow Your Own #8" compilation, "BuyIndieMusic.com vol 1" 
compilation, and "DAMAGE: music to skate to" compilation.