Intro: 
intro pseudo tab:
----------------0-----||(guitar part, repeat 4x)
------4-----------0---||(this goes along with the piano part,
----4---4-----1-----1-|| try different patterns of ,
--4-------4-2---------||  when chord changes in intro)
----------------------||
----------------------||
(piano part)
--------------------------------|-----------------------------|
------------4-4-----------------|---------4-4-----------------|
--------4-6---------4-6-4---4---|-----4-6---------4-6-4---4---|
----4-6---------4-6-------6-----|-4-6---------4-6-------6-----|
--------------------------------|-----------------------------|
--------------------------------|-----------------------------|
----4-2-4------4-2-4-------4-2-----------4-2------------------|
----------4----------4-2-------4-2-----------4-2--------------|
-------------------------4---------4-1-4---------4-1-4-1------|
---------------------------------------------------------4----|
--------------------------------------------------------------|
--------------------------------------------------------------|
	Nicky's in the corner, with a black coat on
	Running from a bad home, with some cat inside
	Now where did you find her, among the neon lights
	That haunt the streets outside, she says stay with me	
	Beautiful girl (stay with me)
	Beautiful girl (stay with me)
	She wanna go home
	From doorway to doorway, street corner to corner
	Neon ghosts in the city, and she says stay with me
	(same chords as intro)
	Stay with me
	Stay with me
	Stay with me
	(same chords as first stanza and chorus)
	She's so scared, so very frightened
	Anything can happen, right here tonight
	Beautiful girl (stay with me)
	Beautiful girl (stay with me)
	She wanna go home
	Stay with me (beautiful girl)
        Stay with me (beautiful girl)
        Stay with me (beautiful girl)
        Stay with me (beautiful girl)