It isn't totally right, but it's too hard to write out correctly. This 
version still sounds OK if you can understand it.  
Tuning: Gtr 1 = CGDGBE. Gtr 2 = EADGBE. 
Note: / = Slide 
If some notes are close next to each other, I've seperated them with 
dots. 
Verse: 
|----------------|----------------| 
|----------------|----------------| 
|----------------|----------------| 
|----------------|----------------| 
|5/9-9------14\12|5/9-9------14\12| 
|0---0---00------|0---0---00------| 
Chorus: 
|                |                |                |                | 
Verse 
Chorus 
Other bit: 
|----------------|----------------| 
|----------------|----------------| 
|----------------|----------------| 
|----------------|7-------10------| 
|0---10.9.8------|7-------10------| 
|0---------------|----------------|(x 4) 
|----------------| 
|----------------| 
|----------------| 
|------------8.6-| 
|0---10.9.8--8.6-| 
|0---------------|(x 2) 
Another bit: 
               Weird chord 
|----------------|      |----------------|----------------| 
|----------------|      |11--------------|----------------| 
|7-------10------|      |10--------------|----------------| 
|5-------8-------|      |8---------------|----------------| 
|5-------8-------|      |8---------------|----------------| 
|----------------|(X 12)|----------------|----------------| 
Solo: 
|----------------|----------------| 
|----------------|----------------| 
|3-------5-------|10--------------| 
|3-------5-------|9---------------| 
|3-------5-------|9---------------| 
|----------------|0---------------| 
"Other bit" 
|----------------| 
|----------------| 
|----------------| 
|----------------| 
|0-------5-------| 
|0-------5-------|(x 8) 
Chorus 
|----------------| 
|----------------| 
|----------------| 
|5-------5-------| 
|0-------3-------| 
|0-------3-------|(x 16) 
Finish on "C"