I play this without a capo. And I am sure Rod McCormack plays it without a  
capo as well. This is only the Intro, Verse, And Chorus.. Happy guitaring 
 = 466444  E = 022100 
Intro played twice 
E||-----------------------|-----------------------|-----------------------| 
B||--------4---------4----|--------2---------2----|--------4---------4----| 
G||---------------4-------|---------------3-------|---------------4-------| 
D||-------------4---------|-------------4---------|-------------6---------| 
A||-----2-----------------|-----------------------|-----------------------| 
E||-----------------------|-----2-----------------|-----4-----------------| 
--------0---------0----|-----|| 
---------------0-------|-----|| 
-------------1---------|-----|| 
-----------------------|-----|| 
-----------------------|-----|| 
-----0-----------------|-----|| 
Verse  
E||--------------------|--------------------|--------------------| 
B||--------4-----------|--------2-----------|--------4-----------| 
G||--------------------|--------------------|--------------------| 
D||--------------------|--------------------|--------------------| 
A||----2---------------|--------------------|--------------------| 
E||--------------------|----2---------------|----4---------------| 
--------0---------0----|--------------------|--------------------| 
-------------0---------|--------4-----------|--------2-----------| 
---------------1-------|--------------------|--------------------| 
-----------------------|--------------------|--------------------| 
-----------------------|----2---------------|--------------------| 
----0------------------|--------------------|----2---------------| 
--------------------|--------0---------0-----0-|------|| 
--------4-----------|-------------0------0-----|------|| 
--------------------|---------------1------1---|------|| 
--------------------|--------------------------|------|| 
--------------------|--------------------------|------|| 
----4---------------|----0---------------------|------|| 
The piece between the verse and Chorus is the same as the intro 
Chorus 
E||-----------------------------|-----------------------------| 
B||-----4-------4-----4---------|-----2-------2-----2---------| 
G||--------4------4------4---4--|--------3------3------3---3--| 
D||----------4------4------4----|----------4------4------4----| 
A||--2--------------------------|-----------------------------| 
E||-----------------------------|--2--------------------------| 
-----0-------0-----0---------|-----0-------0-----0---------|| 
--------0------0------0---0--|--------0------0------0---0--|| 
----------1------1------1----|----------1------1------1----|| 
-----------------------------|-----------------------------|| 
-----------------------------|-----------------------------|| 
--0--------------------------|--0--------------------------||