Kasey Chambers - Don't Go 
Intro: 
e|--------0---|-------0----|-------0----|-------0----| 
B|----------3-|----------3-|----------3-|----------3-| 
G|-----2------|---2--------|----2-------|----2-------| 
D|--0---------|-0----------|--0---------|-0----------| 
A|------------|------------|------------|------------| 
E|------------|------------|------------|------------| 
                                           As your.... 
e|--------0---|--------0---|--------2---|-------2----|-------3----| 
B|----------3-|----------3-|----------3-|----------3-|----------3-| 
G|-----2------|-----2------|-----2------|-----2------|-----2------| 
D|--0---------|--0---------|--0---------|--0---------|--0---------| 
A|------------|------------|------------|------------|------------| 
E|------------|------------|------------|------------|------------| 
  disappearing  Im hearing   All I wanted you to say ....... 
e|-------3----|-------3----|-------3----|-------0----|-------0----| 
B|----------3-|----------3-|----------3-|----------3-|----------3-| 
G|-----2------|-----2------|-----2------|-----2------|-----2------| 
D|--0---------|--0---------|--0---------|--0---------|--0---------| 
A|------------|------------|------------|------------|------------| 
E|------------|------------|------------|------------|------------| 
.................................. I should focus more on the thought of 
e|-------2----|-------2----|-------3----|-------3----|-------3----| 
B|----------3-|----------3-|----------3-|----------3-|----------3-| 
G|-----2------|-----2------|-----2------|-----2------|-----2------| 
D|--0---------|--0---------|--0---------|--0---------|--0---------| 
A|------------|------------|------------|------------|------------| 
E|------------|------------|------------|------------|------------| 
  lettin you just slip away..................................... 
e|-------3----|-------0----|-------0----|-------0----|-------0----| 
B|----------3-|----------2-|----------2-|----------2-|----------2-| 
G|-----2------|-----2------|-----2------|-----2------|-----2------| 
D|--0---------|--2---------|--2---------|--2---------|--2---------| 
A|------------|------------|------------|------------|------------| 
E|------------|------------|------------|------------|------------| 
                But I get this strange feeling...your not reveiling 
e|-------3----|-------3----|-------3----|-------3----|-------0----| 
B|----------3-|----------3-|----------3-|----------3-|----------2-| 
G|-----2------|-----2------|-----2------|-----2------|-----2------| 
D|--0---------|--0---------|--0---------|--0---------|--2---------| 
A|------------|------------|------------|------------|------------| 
E|------------|------------|------------|------------|------------| 
     everything you wanted to say                    So its just a 
e|-------0----|-------0----|-------0----|-------3----|-------3----| 
B|----------2-|----------2-|----------2-|----------3-|----------3-| 
G|-----2------|-----2------|-----2------|-----2------|-----2------| 
D|--2---------|--2---------|--2---------|--0---------|--0---------| 
A|------------|------------|------------|------------|------------| 
E|------------|------------|------------|------------|------------| 
  little harder for me to play the part of watchin you walk away... 
e|-------3----|-------0----|-------2----|--------2----|-----------| 
B|----------3-|----------3-|----------3-|-----------3-|----------| 
G|-----2------|-----2------|-----2------|-----2-------|---------| 
D|--0---------|--0---------|--0---------|--0----------|----------| 
A|------------|------------|------------|-------------|----------| 
E|------------|------------|------------|-------------|-----------| 
.............  So before you disappear again just think of what your