Tabbed by Dave [email protected]  
The tab version I found on ozTabs didn't sound quite right to me  
so here's my take on this song.  
Intro: Strum opening  chord  
Verse:  
-----------------------------------------------------------------0---0---0--  
3----3-----3-----3-----3-----3-----3-----3-----3----3--3--3--3---2---2---2--  
2----2-----2-----2-----2-----1-----1-----1-----1----0--0--0--0---0-0-0-0-0-0  
0----0-----0-----0-----0-----0-----0-----0-----0----0--0--0--0-----2---2---2  
0----0-----0-----0-----0-----0-----0-----0-----0----0--0--0--0-----0---0---0  
----------------------------------------------------------------------------  
1: Don?t be confused by my apparent lack of ceremony, my mind is clear  
1: I may be low or miles high off in the distance, I want you near  
2: And If they take me flying on the magic carpet, see me wave  
2: If our communication fails, I reconnect it, I want to reign  
3: No matter where the road is leading us remember, don't be afraid   
3: We have a continent, that sometimes comes between us, That?s O.K  
Chorus:  
       I    love you, even when I?m sleeping  
       When I close my eyes,      you?re everywhere  
Interlude:  
------------------------------  
--5------5------5------2------  
--6------6------6------0------  
--7------5------4------2------  
--0------0------0------0------  
------------------------------  
Chords:  
-2---2------  
-2---3---2--  
-3---4---0--  
-2---4---2--  
-4---2---0--  
-2----------  
Comments/Suggestions [email protected]