01.10   1 n e n 2 j e n 3 j e n 4 r e n  
G|-------------------------------/ 
D|--------------------3-------5--/4x 
A|--------------3h5---------5----/ 
E|3------------------------------/ 
01.21 
  1 n e n 2 j e n 3 j e n 4 r e n 1 n e n 2 j e n 3 j e n 4 r e n  
G|-------------------------------/-------------------------------/ 
D|--------------------3-------5--/-------------------------------/ 
A|--------------3h5---------5----/3---------------3---3----------/ 
E|3------------------------------/--------------3-------------0-1/ 
   People on their own are getting nowhere 
  1 n e n 2 j e n 3 j e n 4 r e n 1 n e n 2 j e n 3 j e n 4 r e n  
G|-------------------------------/-------------------------------/ 
D|--------------------3-------5--/-------------------------------/ 
A|--------------3h5---------5----/3---------------3---3-------1--/ 
E|3------------------------------/--------------3-----------3----/ 
   I am on the road to see 
  1 n e n 2 j e n 3 j e n 4 r e n 1 n e n 2 j e n 3 j e n 4 r e n  
G|-------------------------------/----------------3---3----------/ 
D|-------------------------------/--------------3---------0-3----/ 
A|3---------------3---3-------2--/1---------------------------1--/ 
E|--------------3-----------3----/-------------------------------/ 
   If anything is anywhere and    waiting, just for  
  1 n e n 2 j e n 3 j e n 4 r e n 1 n e n 2 j e n 3 j e n 4 r e n  
G|-------------------------------/-------------------------------/ 
D|0------------------------------/----------------4---5---6---7--/ 
A|----------------5---5-------3--/5-------------5----------------/ 
E|--------------5-----------5----/-------------------------------/ 
   Me 
01.43 
  1 n e n 2 j e n 3 j e n 4 r e n 1 n e n 2 j e n 3 j e n 4 r e n  
G|-------------------------------/-------------------------------/ 
D|--------------------3-------5--/-------------------------------/ 
A|--------------3h5---------5----/3---------------3---3----------/ 
E|3------------------------------/--------------3-------------0-1/ 
  Every night I walk around the city 
  1 n e n 2 j e n 3 j e n 4 r e n 1 n e n 2 j e n 3 j e n 4 r e n  
G|-------------------------------/-------------------------------/ 
D|--------------------3-------5--/-------------------------------/ 
A|--------------3h5---------5----/3---------------3---3-------1--/ 
E|3------------------------------/--------------3-----------3----/ 
  Seems like I'll never know,  
  1 n e n 2 j e n 3 j e n 4 r e n 1 n e n 2 j e n  3 j e n 4 r e n  
G|-------------------------------/-----------------3--------------/ 
D|-------------------------------/--------------3h5--------5p3----/ 
A|3---------------3---3-------2--/1----------------------------3h4/ 
E|--------------3-----------3----/--------------------------------/ 
  That feeling of being together when I  
  1 n e n 2 j e n 3 j e n 4 r e n 1 n e n 2 j e n 3 j e n 4 r e n  
G|-------------------------------/-------------------------------/ 
D|-------------------------------/-------------------------------/ 
A|5---------------5---5-------3--/5---------------5---5-------4--/ 
E|--------------5-----------5----/--------------5-----------5----/ 
  Go                                              02.04 And it's 
  1 n e n 2 j e n 3 j e n 4 r e n 1 n e n 2 j e n 3 j e n 4 r e n  
G|-------------------------------/-------------------------------/ 
D|-------------------------------/-------------------------------/ 
A|3---------------3---3-------3--/6---------------8---8----------/ 
E|--------------3-----------3----/--------------8-----------1-2--/ 
  A long way there,       it’s a long way to where I'm going  
  1 n e n 2 j e n 3 j e n 4 r e n 1 n e n 2 j e n 3 j e n 4 r e n  
G|-------------------------------/-------------------------------/ 
D|--------------------3-------5--/--------------------3-------5--/ 
A|--------------3h5---------5----/--------------3h5---------5----/ 
E|3------------------------------/3------------------------------/ 
                                               02.14 And it’s a  
  1 n e n 2 j e n 3 j e n 4 r e n 1 n e n 2 j e n 3 j e n 4 r e n  
G|-------------------------------/-------------------------------/ 
D|-------------------------------/-------------------------------/ 
A|3---------------3---3-------3--/6---------------7---8----------/ 
E|--------------3-----------3----/--------------x-------------1--/ 
  Long way there.         It’s a long way to      where I'm go – 
  1 n e n 2 j e n 3 j e n 4 r e n 1 n e n 2 j e n 3 j e n 4 r e n  
G|-------------------------------/-------------------------------/ 
D|--------------------3-------5--/--------------------3-------5--/ 
A|--------------3h5---------5----/--------------3h5---------5----/ 
E|3------------------------------/3------------------------------/ 
  ing  
02.26 
  1 n e n 2 j e n 3 j e n 4 r e n 1 n e n 2 j e n 3 j e n 4 r e n  
G|-------------------------------/-------------------------------/ 
D|--------------------3-------5--/-------------------------------/ 
A|--------------3h5---------5----/3---------------3---3-------1--/ 
E|3------------------------------/--------------3-----------3----/ 
  Hey every -  body,   don’t you feel that there's something' 
  1 n e n 2 j e n 3 j e n 4 r e n 1 n e n 2 j e n 3 j e n 4 r e n  
G|-------------------------------/-------------------------------/ 
D|-------------------------------/--------------------3-------5--/ 
A|3---------------3---3-----3-5--/--------------3h5---------5----/ 
E|--------------3----------------/3------------------------------/ 
  But you know in a moment it is gone                         I    
  1 n e n 2 j e n 3 j e n 4 r e n 1 n e n 2 j e n 3 j e n 4 r e n  
G|-------------------------------/-------------------------------/ 
D|--------------------3-------5--/-------------------------------/ 
A|--------------3h5---------5----/3---------------3---3-------1--/ 
E|3------------------------------/--------------3-----------3----/ 
  Live for the day when I can    hear people saying     That they  
  1 n e n 2 j e n 3 j e n 4 r e n 1 n e n 2 j e n 3 j e n 4 r e n  
G|-------------------------------/-------------------------------/ 
D|-------------------------------/--------------------3-------5--/ 
A|3---------------3---3-----3-5--/--------------3h5---------5----/ 
E|--------------3----------------/3------------------------------/ 
  Know and they care for everyone                   02.47 But I  
  1 n e n 2 j e n 3 j e n 4 r e n 1 n e n 2 j e n 3 j e n 4 r e n  
G|-------------------------------/-------------------------------/ 
D|----------------3---3----------/-------------------------------/ 
A|--------------3-------------1--/3------------------------------/ 
E|1-------------------------3----/-------------------------------/ 
  Feel like I've been here for the whole of my life. Never knowing 
  1 n e n 2 j e n 3 j e n 4 r e n 1 n e n 2 j e n 3 j e n 4 r e n  
G|-------------------------------/-------------------------------/ 
D|--------------------3-------5--/--------------------3-------5--/ 
A|--------------3h5---------5----/--------------3h5---------5----/ 
E|3------------------------------/3------------------------------/ 
  home  
INTER 02.59 
  1 n e n 2 j e n 3 j e n 4 r e n 1 n e n 2 j e n 3 j e n 4 r e n  
G|-------------------------------/-------------------------------/ 
D|--------------------3-------5--/----------------5--------------/ 
A|--------------3h5---------5----/--------------5---5s3---3-1----/ 
E|3------------------------------/3------------------------------/ 
  1 n e n 2 j e n 3 j e n 4 r e n 1 n e n 2 j e n 3 j e n 4 r e n  
G|-------------------------------/-------------------------------/ 
D|--------------------3-------5--/-------------------------------/ 
A|--------------3h5---------5----/--------------5h3-5s3---3-1----/ 
E|3-------5----------------------/3------------------------------/ 
  1 n e n 2 j e n 3 j e n 4 r e n 1 n e n 2 j e n 3 j e n 4 r e n  
G|-------------------------------/-------------------------------/ 
D|--------------------3-------5--/----------------5--------------/ 
A|--------------3h5---------5----/--------------5---5s3---3-1----/ 
E|3------------------------------/3------------------------------/ 
03.14 
  1 n e n 2 j e n 3 j e n 4 r e n 1 n e n 2 j e n 3 j e n 4 r e n  
G|-------------------------------/-------------------------------/ 
D|--------------------3-------5--/----------------5--------------/ 
A|--------------3h5---------5----/--------------5---5s3---3-1----/ 
E|3-------5----------------------/3------------------------------/ 
  It's a long                    way.                      It’s a  
  1 n e n 2 j e n 3 j e n 4 r e n 1 n e n 2 j e n 3 j e n 4 r e n  
G|-------------------------------/-------------------------------/ 
D|--------------------3-------5--/----------------5--------------/ 
A|--------------3h5---------5----/--------------5---5s3---3-1----/ 
E|3-------5----------------------/3------------------------------/ 
  Long, long, long way there.                           I'm gonna  
  1 n e n 2 j e n 3 j e n 4 r e n 1 n e n 2 j e n 3 j e n 4 r e n  
G|-------------------------------/-------------------------------/ 
D|--------------------3-------5--/----------------5--------------/ 
A|--------------3h5---------5----/--------------5---5s3---3-1----/ 
E|3-------5----------------------/3-----------------------------1/ 
  Keep on tryin',       I'm gonna keep on tryin' yeah   I'm gonna  
  1 n e n 2 j e n 3 j e n 4 r e n 1 n e n 2 j e n 3 j e n 4 r e n  
G|-------------------------------/-------------------------------/ 
D|--------------------3-------5--/--------------------3---5-3----/ 
A|--------------3h5---------5----/--------------3h5-----5-----5-4/ 
E|3------------------------------/3------------------------------/ 
  Keep on tryin',       I'm gonna keep on tryin', yeaaaaaaaaah - 
  1 n e n 2 j e n 3 j e n 4 r e n 1 n e n 2 j e n 3 j e n 4 r e n  
G|-------------------------------/-------------------------------/ 
D|-------------------------------/-------------------------------/ 
A|3---------------3---3-------3-5/6-----------6-7-8--------------/ 
E|--------------3-----------3----/----------6-----------------1--/ 
  eeeeeeeeeeeeeeeeeeeeeeeeeeeeeeeeeeeeeeeeeeeeeeeeeeeeeeeeeeeeeh 
  1 n e n 2 j e n 3 j e n 4 r e n 1 n e n 2 j e n 3 j e n 4 r e n  
G|-------------------------------/-------------------------------/ 
D|--------------------3-------5--/--------------------3-------5--/ 
A|--------------3h5---------5----/--------------3h5---------5----/ 
E|3------------------------------/3------------------------------/ 
03.47 
  1 n e n 2 j e n 3 j e n 4 r e n 1 n e n 2 j e n 3 j e n 4 r e n  
G|-------------------------------/-------------------------------/ 
D|--------------------3-------5--/-------------------------------/ 
A|--------------3h5---------5---5/3---------------3-3------------/ 
E|3------------------------------/--------------3-----0-0-1-1-2-2/ 
  Been away from home for such a long time 
  1 n e n 2 j e n 3 j e n 4 r e n 1 n e n 2 j e n 3 j e n 4 r e n  
G|-------------------------------/-------------------------------/ 
D|--------------------3-------5--/-------------------------------/ 
A|--------------3h5---------5---5/3---------------3---3-------1-2/ 
E|3------------------------------/--------------3-----------3----/ 
  And got to    know this     town                            But  
  1 n e n 2 j e n 3 j e n 4 r e n 1 n e n 2 j e n 3 j e n 4 r e n  
G|-------------------------------/----------------3--------------/ 
D|-------------------------------/------------3h5-----5---3------/ 
A|3---------------3---3-------2--/1-------------------------1-3h4/ 
E|--------------3-----------3----/-------------------------------/ 
  I don't seem to matter much to anyone,                 who's a –  
  1 n e n 2 j e n 3 j e n 4 r e n 1 n e n 2 j e n 3 j e n 4 r e n  
G|-------------------------------/-------------------------------/ 
D|-------------------------------/--------4-----4-5-----x-5-6-7--/ 
A|5---------------5---5-------3-4/5-----5-----------------------5/ 
E|--------------5-----------5----/-------------------------------/ 
  Round,                 is there anybody around 
  1 n e n 2 j e n 3 j e n 4 r e n 1 n e n 2 j e n 3 j e n 4 r e n  
G|-------------------------------/-------------------------------/ 
D|--------------------3-------5--/-------------------------------/ 
A|------------3h--5---------5----/3---------------3--------------/ 
E|3------------------------------/------------3-------0---1---2--/ 
Every night I walk around the city 
  1 n e n 2 j e n 3 j e n 4 r e n   1 n e n 2 j e n 3 j e n 4 r e n  
G|---------------------------------/----------------------------5--/ 
D|--------------------3-------5----/------------------------------5/ 
A|------------3h--5---------5---3h5/3---------------3---3-----3----/ 
E|3--------------------------------/------------3------------------/ 
  Seems like I'll never know 
  1 n e n 2 j e n 3 j e n 4 r e n 1 n e n 2 j e n 3 j e n 4 r e n  
G|-------------------------------/------------3h5-3--------------/ 
D|-------------------------------/--------------------5-3--------/ 
A|3---------------3---3-------3-2/1-----------------------5-3----/ 
E|------------3-------------3----/----------------------------6--/ 
  The feeling of being      to - gether                   when I  
  1 n e n 2 j e n 3 j e n 4 r e n 1 n e n 2 j e n 3 j e n 4 r e n  
G|-------------------------------/------------------------5-6-7--/ 
D|-------------------------------/--------4-----4-5-6-7----------/ 
A|5---------------5---5-------3-4/5-----5------------------------/ 
E|------------5-------------5----/-------------------------------/ 
  Go.                                           04.28 And it's a 
  1 n e n 2 j e n 3 j e n 4 r e n 1 n e n 2 j e n 3 j e n 4 r e n  
G|-------------------------------/-------------------------------/ 
D|-------------------------------/-------------------------------/ 
A|3---------------3---3-------3--/6---------------7---8----------/ 
E|--------------3-----------3----/--------------x-----------1-2--/ 
  Long way there.         It’s a long way to      where I'm go – 
  1 n e n 2 j e n 3 j e n 4 r e n 1 n e n 2 j e n 3 j e n 4 r e n  
G|-------------------------------/-------------------------------/ 
D|--------------------3-------5--/--------------------3-------5--/ 
A|--------------3h5---------5----/--------------3h5---------5---5/ 
E|3------------------------------/3------------------------------/ 
  Ing                                                   And it's a 
  1 n e n 2 j e n 3 j e n 4 r e n 1 n e n 2 j e n 3 j e n 4 r e n  
G|-------------------------------/-------------------------------/ 
D|-------------------------------/-------------------------------/ 
A|3---------------3---3-------3--/6---------------8--------------/ 
E|--------------3-----------3----/-------------------------------/ 
  Long way there.         It’s a long way to      where I'm go –  
  1 n e n 2 j e n 3 j e n 4 r e n 1   n e n 2 j e n 3 j e n 4 r e n  
G|-------------------------------/---------------------------------/ 
D|-------------------------------/3h5------------------------------/ 
A|-------------------------------/---------------------------------/ 
E|3------------------------------/---------------------------------/ 
  Ing  
  1 n e n 2 j e n 3 j e n 4 r e n 1 n e n 2 j e n 3 j e n 4 r e n  
G|-------------------------------/-------------------------------/ 
D|-------------------------------/-------------------------------/ 
A|-------------------------------/3-------------------------3-5--/ 
E|3------------------------------/-------------------------------/ 
SOLO 04.57  
  1 n e n 2 j e n 3 j e n 4 r e n 1 n e n 2 j e n 3 j e n 4 r e n  
G|-------------------------------/-------------------------------/ 
D|-------------------------------/-------------------------------/ 3x 
A|-------------------------------/-------------------------------/ 
E|3-------3-------3-------3------/3-------3-------3-------3------/ 
  1 n e n 2 j e n 3 j e n 4 r e n 1 n e n 2 j e n 3 j e n 4 r e n  
G|-------------------------------/-------------------------------/ 
D|-------------------------------/-------------------------------/ 
A|-------------------------------/-------------------------------/ 
E|3-------3-------3-------3------/3-------3-------3-------3-0-1-2/ 
  1 n e n 2 j e n 3 j e n 4 r e n 1 n e n 2 j e n 3 j e n 4 r e n  
G|-------------------------------/-------------------------------/ 
D|----------------5-----5--------/--------5-----5---------5-----5/ 5x 
A|--------5-----5---------5---4--/3-----3---------3-----3--------/ 
E|3-----3---------3-----3--------/-------------------------------/ 
  1 n e n 2 j e n 3 j e n 4 r e n 1 n e n 2 j e n 3 j e n 4 r e n  
G|-------------------------------/-------------------------------/ 
D|----------------5-----5--------/--------5-----5----------------/ 
A|--------5-----5---------5---4--/3-----3---------3---0---1---2--/ 
E|3-----3------------------------/-------------------------------/ 
  1 n e n 2 j e n 3 j e n 4 r e n 1 n e n 2 j e n 3 j e n 4 r e n  
G|-------------------------------/-------------------------------/ 
D|----------------5-----5--------/--------5-----5---------5-----5/ 
A|--------5-----5---------5---4--/3-----3---------3-----3--------/ 
E|3-----3------------------------/-------------------------------/ 
  1 n e n 2 j e n 3 j e n 4 r e n 1 n e n 2 j e n 3 j e n 4 r e n  
G|-------------------------------/-------------------------------/ 
D|----------------5-----5--------/--------5-----5----------------/ 
A|--------5-----5---------5---4--/3-----3---------3---0---1---2--/ 
E|3-----3------------------------/-------------------------------/ 
06.02 
  1 n e n 2 j e n 3 j e n 4 r e n 1 n e n 2 j e n 3 j e n 4 r e n  
G|-------------------------------/-------------------------------/ 
D|-------------------------------/-------------------------------/ 
A|-------------------------------/--------7-----7-8-----8-9-----9/ 
E|3-----3-5-----5-6-----6-7-----7/8-----8------------------------/ 
  1 n e n 2 j e n 3 j e n 4 r e n 1 n e n 2 j e n 3 j e n 4 r e n  
G|-------------------------------/--------9-----9-10----1011--12-/ 
D|--------7-----7-8-----8-9-----9/10----10-----------------------/ 
A|10----10-----------------------/-------------------------------/ 
E|-------------------------------/-------------------------------/ 
  1 n e n 2 j e n 3 j e n 4 r e n 1 n e n 2 j e n 3 j e n 4 r e n  
G|-------------------------------/-------------------------------/ 
D|----------------5-----5--------/--------5-----5---------5-----5/ 
A|--------5-----5---------5---4--/3-----3---------3-----3--------/ 
E|3-----3------------------------/-------------------------------/ 
  1 n e n 2 j e n 3 j e n 4 r e n 1 n e n 2 j e n 3 j e n 4 r e n  
G|-------------------------------/------------------------3-4-5--/ 
D|----------------5-----5--------/-------------------------------/ 
A|--------5-----5---------5---5--/3-----3------------------------/ 
E|3-----3------------------------/--------0-----0-1-2-3----------/ 
  1 n e n 2 j e n 3 j e n 4 r e n 1 n e n 2 j e n 3 j e n 4 r e n  
G|-------------------------------/-------------------------------/ 
D|----------------5-----5--------/--------5-----5---------5-----5/ 
A|--------5-----5---------5---4--/3-----3---------3-----3--------/ 
E|3-----3------------------------/-------------------------------/ 
  1 n e n 2 j e n 3 j e n 4 r e n 1 n e n 2 j e n 3 j e n 4 r e n  
G|-------------------------------/-------------------------------/ 
D|----------------5-----5--------/-------------------------------/ 
A|--------5-----5---------5---4--/--3-------1-------0------------/ 
E|3-----3------------------------/--------------------------3----/ 
  1 n e n 2 j e n 3 j e n 4 r e n 1 n e n 2 j e n 3 j e n 4 r e n  
G|-------------------------------/-------------------------------/ 
D|----------------5-----5--------/--------5-----5---------5-----5/ 
A|--------5-----5---------5---4--/3-----3---------3-----3--------/ 
E|3-----3------------------------/-------------------------------/ 
  1 n e n 2 j e n 3 j e n 4 r e n 1 n e n 2 j e n 3 j e n 4 r e n  
G|-------------------------------/-------------------------------/ 
D|----------------5-----5--------/--------5-----5----------------/ 2x 
A|--------5-----5---------5---4--/3-----3---------3--------------/ 
E|3-----3------------------------/--------------------0---1---2--/ 
  1 n e n 2 j e n 3 j e n 4 r e n 1 n e n 2 j e n 3 j e n 4 r e n  
G|-------------------------------/-------------------------------/ 
D|----------------5-----5--------/-------------------------------/ 
A|--------5-----5---------5---4--/--3-------1--------------------/ 
E|3-----3------------------------/-------------------------------/ 
06.56 
  1 n e n 2 j e n 3 j e n 4 r e n 1 n e n 2 j e n 3 j e n 4 r e n  
G|-------------------------------/-------------------------------/ 
D|----------------5-----5--------/--------5-----5---2-----3---4-5/ 
A|--------5-----5---------5---4--/3-----3---------3--------------/ 
E|3-----3------------------------/-------------------------------/ 
           Everybody knows it’s a long way there  
  1 n e n 2 j e n 3 j e n 4 r e n 1 n e n 2 j e n 3 j e n 4 r e n  
G|-------------------------------/-------------------------------/ 
D|----------------5-----5--------/--------5-----5----------------/ 
A|--------5-----5---------5---4--/3-----3---------3--------------/ 
E|3-----3------------------------/--------------------0---1---2--/ 
        Oh, everybody knows it’s a long way there  
  1 n e n 2 j e n 3 j e n 4 r e n 1 n e n 2 j e n 3 j e n 4 r e n  
G|-------------------------------/-------------------------------/ 
D|----------------5-----5--------/--------5-----5---------5-----5/ 
A|--------5-----5---------5---4--/3-----3---------3-----3--------/ 
E|3-----3------------------------/-------------------------------/ 
                        Ooh, it’s a long way  
  1 n e n 2 j e n 3 j e n 4 r e n 1 n e n 2 j e n 3 j e n 4 r e n  
G|-------------------------------/-------------------------------/ 
D|-------------------------------/-------------------------------/ 
A|-------------------------------/--------7-----7-8-----8-9-----9/ 
E|3-----3-5-----5-6-----6-7-----7/8-----8------------------------/ 
  Travelin’ around starts getting me down, and I know, I know It’s a 
  1 n e n 2 j e n 3 j e n 4 r e n 1 n e n 2 j e n 3 j e n 4 r e n  
G|-------------------------------/-------------------------------/ 
D|----------------5-----5--------/--------5-----5---------5-----5/ 
A|--------5-----5---------5---4--/3-----3---------3-----3--------/ 
E|3-----3------------------------/-------------------------------/ 
  Long,   long   way    there                         It’s such a  
  1 n e n 2 j e n 3 j e n 4 r e n 1 n e n 2 j e n 3 j e n 4 r e n  
G|-------------------------------/------------------------3-4-5--/ 
D|----------------5-----5--------/--------2-----2-3-----3--------/ 
A|--------5-----5---------5---4--/3-----3------------------------/ 
E|3-----3------------------------/-------------------------------/ 
 long                              long  way      long   way   
07.28 
  1 n e n 2 j e n 3 j e n 4 r e n 1 n e n 2 j e n 3 j e n 4 r e n  
G|-------------------------------/-------------------------------/ 
D|----------------5-----5--------/--------5-----5---------5-----5/ 
A|--------5-----5---------5---4--/3-----3---------3-----3--------/ 
E|3-----3------------------------/-------------------------------/ 
  Hey everybody yeah.                                   Don’t you  
  1 n e n 2 j e n 3 j e n 4 r e n 1 n e n 2 j e n 3 j e n 4 r e n  
G|5-----5-7-----7-8-----8-5-----5/-------------------------------/ 
D|-------------------------------/----------------5--------------/ 
A|-------------------------------/--------5-----5----------------/ 
E|-------------------------------/3-----3-----------0-----1---2--/ 
  Feel that there's something      Feel it,       feel it  
  1 n e n 2 j e n 3 j e n 4 r e n 1 n e n 2 j e n 3 j e n 4 r e n  
G|-------------------------------/-------------------------------/ 
D|----------------5-----5--------/--------5-----5---------5-----5/ 
A|--------5-----5---------5---4--/3-----3---------3-----3--------/ 
E|3-----3------------------------/-------------------------------/ 
  Hey everybody yeah.                                   Don’t you  
  1 n e n 2 j e n 3 j e n 4 r e n 1 n e n 2 j e n 3 j e n 4 r e n  
G|-------------------------------/-------------------------------/ 
D|------------------------3-----3/----------------5-----5--------/ 
A|3-----3-5-----5-6-----6--------/--------5-----5---------5-----5/ 
E|-------------------------------/3-----3------------------------/ 
  Feel that there's something        
  1 n e n 2 j e n 3 j e n 4 r e n  
G|-------------------------------/ 
D|----------------5-5---5--------/ 
A|--------5-----5-----------5-5--/ 
E|3-----3------------------------/ 
07.52 OUTRO 
  1 n e n 2 j e n 3 j e n 4 r e n  
G|-------------------------------/ 
D|-------------------------------/ 8x 
A|-------------------------------/ 
E|3-------3-------3-------3------/ 
  1 2 3 4 1 2 3 4 1 2 3 4 1 2 3 4  
G|-------/--------/------/-------/ 
D|5-5-5-5/3-3-3-3-/2-----/-------/ 
A|-------/--------/------/-------/ 
E|-------/--------/------/-------/ 
  1 n e n 2 j e n 3 j e n 4 r e n 1 n e n 2 j e n 3 j e n 4 r e n  
G|-------------------------------/-------------------------------/ 
D|-------------------------------/-------------------------------/ 
A|6------------------------------/5---3---1----------------------/ 
E|-------------------------------/----------------5---3---1------/ 
  1 n e n 2 j e n 3 j e n 4 r e n 1 n e n 2 j e n 3 j e n 4 r e n  
G|-------------------------------/-------------------------------// 
D|-------------------------------/-------------------------------// 
A|-------------------------------/-------------------------------// 
E|3------------------------------/-------------------------------//