Transcribed: 25 May 2004 
Notes: Here's just the 4 main chords repeated throughout the 
song. There's a bit near the end (about 2:40 in) that they 
play a riff in E for a couple bars - that's below too. Comments  
& corrections welcome. 
MAIN CHORDS PLAYED THROUGHOUT: 
E-|-----------------|- 
B-|-0---0---0---0---|- 
G-|-0---0---2---0---|- 
D-|-2---0---2---2---|- 
A-|-3---2---0---2---|- 
E-|-----3-------0---|- 
E RIFF (approx 2:40 in) 
E-|--------------------------------------------------------------|- 
B-|--------------------------------------------------------------|- 
G-|-21-21-21--21-21-19-19-19-19\17-17-16-16-16--16-16--16-16-16--|- 
D-|--------------------------------------------------------------|- 
A-|-19-19-19--19-19-17-17-17-17\15-15-14-14-14--14-14--14-14-14--|- 
E-|-0--0--0---0--0--0--0--0--0-----0--0--0--0---0--0---0--0--0---|- 
E-|----------------------|- 
B-|----------------------|- 
G-|-21-21-21--21-21------|- 
D-|----------------------|- 
A-|-19-19-19--19-19-etc--|- 
E-|-0--0--0---0--0-------|-