Released On: Favourite Jeans Single (Track 1) 
Transcribed by Paul @ OzTabs ([email protected]) 
www.ozmusic-central.com.au/oztabs 
Transcribed: 13 May 2004 
Notes: Nice & easy song to play along to. I've only listened to the 
live on the porch version at this stage, so the format may be a little 
different to the CD single version. Comments & corrections welcome. 
INTRO: 
E-|----------------------------------------------------------------|- 
B-|-4-4---4-4-4---4-4-4---9-9-9---4-4-4---4-4-4---4-4-4---11-11-11-|- 
G-|-4-4---4-4-4---4-4-4---9-9-9---4-4-4---4-4-4---4-4-4---11-11-11-|- 
D-|-4-4---4-4-4---4-4-4---9-9-9---4-4-4---4-4-4---4-4-4---11-11-11-|- 
A-|-2-2---2-2-2---2-2-2---7-7-7---2-2-2---2-2-2---2-2-2---9--9--9--|- 
E-|----------------------------------------------------------------|- 
E-|------------------------------------------------------------------|- 
B-|-4-4-4---4-4-4---4-4-4---9-9-9---4-4-4---4-4-4---4-4-4---11-11-11-|- 
G-|-4-4-4---4-4-4---4-4-4---9-9-9---4-4-4---4-4-4---4-4-4---11-11-11-|- 
D-|-4-4-4---4-4-4---4-4-4---9-9-9---4-4-4---4-4-4---4-4-4---11-11-11-|- 
A-|-2-2-2---2-2-2---2-2-2---7-7-7---2-2-2---2-2-2---2-2-2---9--9--9--|- 
E-|------------------------------------------------------------------|- 
VERSES: 
E-|------------------------------------------------------------------|- 
B-|-4-4-4---4-4-4---4-4-4---9-9-9---5-5-5---5-5-5---5-5-5---11-11-11-|- 
G-|-4-4-4---4-4-4---4-4-4---9-9-9---6-6-6---6-6-6---6-6-6---11-11-11-|- 
D-|-4-4-4---4-4-4---4-4-4---9-9-9---6-6-6---6-6-6---6-6-6---11-11-11-|- 
A-|-2-2-2---2-2-2---2-2-2---7-7-7---4-4-4---4-4-4---4-4-4---9--9--9--|- 
E-|------------------------------------------------------------------|- 
E-|---------------------------------------------------------------------|- 
B-|-4-4-4---4-4-4---9-9-9---9-9-9---5-5-5---5-5-5---11-11-11---11-11-11-|- 
G-|-4-4-4---4-4-4---9-9-9---9-9-9---6-6-6---6-6-6---11-11-11---11-11-11-|- 
D-|-4-4-4---4-4-4---9-9-9---9-9-9---6-6-6---6-6-6---11-11-11---11-11-11-|-(x 3) 
A-|-2-2-2---2-2-2---7-7-7---7-7-7---4-4-4---4-4-4---9--9--9----9--9--9--|- 
E-|---------------------------------------------------------------------|- 
CHORUS: (play twice through) 
E-|------------------------------------------------------|- 
B-|-7--7--7--7--7--7--5-5--------------------------------|- 
G-|-8--8--8--8--8--8--6-6--3-3-3---3-3-3---3-3-3---3-3-3-|- 
D-|-8--8--8--8--8--8--6-6--4-4-4---4-4-4---4-4-4---4-4-4-|- 
A-|-6--6--6--6--6--6--4-4--4-4-4---4-4-4---4-4-4---4-4-4-|- 
E-|------------------------2-2-2---2-2-2---2-2-2---2-2-2-|- 
E-|------------------------------------------------------------------|- 
B-|-5-5-5---5-5-5---5-5-5---5-5-5---11-11-11---9-9-9---7-7-7---5-5-5-|- 
G-|-6-6-6---6-6-6---6-6-6---6-6-6---11-11-11---9-9-9---8-8-8---6-6-6-|- 
D-|-6-6-6---6-6-6---6-6-6---6-6-6---11-11-11---9-9-9---8-8-8---6-6-6-|- 
A-|-4-4-4---4-4-4---4-4-4---4-4-4---9--9--9----7-7-7---6-6-6---4-4-4-|- 
E-|------------------------------------------------------------------|- 
then play intro, verse & chorus again followed by the bridge. 
BRIDGE: 
E-|--------------------------------------------------------------------|- 
B-|-4-4-4-4-4-4-4-4--5-5-5-5-5-5-5-5--7-7-7-7-7-7-7-7--7-7-7-7-7-7-5-5-|- 
G-|-4-4-4-4-4-4-4-4--6-6-6-6-6-6-6-6--8-8-8-8-8-8-8-8--8-8-8-8-8-8-6-6-|- 
D-|-4-4-4-4-4-4-4-4--6-6-6-6-6-6-6-6--8-8-8-8-8-8-8-8--8-8-8-8-8-8-6-6-|-(x 2) 
A-|-2-2-2-2-2-2-2-2--4-4-4-4-4-4-4-4--6-6-6-6-6-6-6-6--6-6-6-6-6-6-4-4-|- 
E-|--------------------------------------------------------------------|- 
E-|-----------------------------------------------------|- 
B-|-4--4--4--4---5--5--5--5---7--7--7--7---7--7--7--5-5-|- 
G-|-4--4--4--4---6--6--6--6---8--8--8--8---8--8--8--6-6-|- 
D-|-4--4--4--4---6--6--6--6---8--8--8--8---8--8--8--6-6-|- 
A-|-2--2--2--2---4--4--4--4---6--6--6--6---6--6--6--4-4-|- 
E-|-----------------------------------------------------|- 
E-|------------------------------------------------------------|- 
B-|-4--4--4--4---5--5--5--5---11-11-11---9-9-9---7-7-7---5-5-5-|- 
G-|-4--4--4--4---6--6--6--6---11-11-11---9-9-9---8-8-8---6-6-6-|- 
D-|-4--4--4--4---6--6--6--6---11-11-11---9-9-9---8-8-8---6-6-6-|- 
A-|-2--2--2--2---4--4--4--4---9--9--9----7-7-7---6-6-6---4-4-4-|- 
E-|------------------------------------------------------------|- 
E-|----------------------------------|- 
B-|-11-11-11---9-9-9---7-7-7---5-5-5-|- 
G-|-11-11-11---9-9-9---8-8-8---6-6-6-|- 
D-|-11-11-11---9-9-9---8-8-8---6-6-6-|- 
A-|-9--9--9----7-7-7---6-6-6---4-4-4-|- 
E-|----------------------------------|- 
Then play the chorus twice through till end of song - finish on a  chord.