arranged for 7-string 
normal tuning 
intro/main part 
||-------------------|| 
||-------------------|| 
||-------------------|| 
||-------------------|| 
||----------3-3------|| 
||--4-2-4-2-1-1-4-5--|| 
||--2-0-2-0-----2-3--|| 
interlude 
||------------|| 
||------------|| 
||------------|| 
||------------|| 
||-------5-3--|| 
||--3-3--3-1--|| 
||--5-1-------|| 
verse 
||----------------------|| 
||----------------------|| 
||----------------------|| 
||----------------------|| 
||----------------------|| 
||--33333333333333-6-7--|| 
||--33333333333333-4-5--|| 
  P.M.------------| 
bridge 
||---------------------------------------|| 
||---------------------------------------|| 
||---------------------------------------|| 
||------------4-2------------------------|| 
||------4-2h4-----4-2-----------9-7------|| 
||--4-2-2-------------9-7-9-7h9-----9-7--|| 
||--2-0---------------7-5-7--------------||