Copyright (c)  Dr.Jims/Relapse 
Version 1.0 - 17/08/02 
Transcribed By: Greg Maguire 
Email: [email protected] 
Riff 1 
C#|----------------------------------|--------------------------------| 
G#|----------------------------------|--------------------------------| 
E |----------------------------------|--------------------------------| 
B |--0-------0-------0-------0-------|--0-------0-------7--6----------| x4 
F#|--0-0-0-0-0-0-0-0-0-0-0-0-0-0-2-1-|--0-0-0-0-0-0-0-0-7--6--0-3-5---| 
B |--0-0-0-0-0-0-0-0-0-0-0-0-0-0-2-1-|--0-0-0-0-0-0-0-0-7--6----------| 
Riff 2 
|--------------------------| 
|--------------------------| 
|--------------------------| 
|--------------------------| x 8 
|--0--3--4--5--0--2--3--4--| 
|--0--3--4--5--0--2--3--4--| 
Riff 3 
|---------------|---------------|---------------|----------------| 
|---------------|---------------|---------------|----------------| 
|---------------|--3~-----------|---------------|--5~------------| 
|--0------------|--3~-----------|--3------------|--5~------------| x 2 
|--0------------|--1~-----------|--3------------|--3~-------3~---| 
|--0------------|---------------|--3------------|-----------3~---| 
Then: 
Riff 2 x 8 
Riff 3 x 2 
Riff 2 x 8 
End on this. 
Let ring out... 
|------| 
|------| 
|------| 
|--0---| 
|--0---| 
|--0---|