1st & 2nd Verse 
     Q.      
G|----------------------|-----------------------||-------------------------| 
D|----------------------|-----------2-----0-----||*------------------2--5--| 
A|--3------2--L----0----|-----------------------||*---------0--2--3--------| 
E|----------------------|--3--------------------||---3---------------------| 
    H         
G|-----------------------|------------------------|-----------------------| 
D|--L--------------------|---------------------2--|--0--------2-----0-----| 
A|-----------3-----5-----|---------0--2--3--------|-----------------------| 
E|-----------------------|--3---------------------|-----------------------| 
    Q.      
G|------------------------|-----------------------|------------------------| 
D|---------------------2--|--0--------------------|---------------------2--| 
A|---------0--2--3--------|-----------3-----5-----|---------0--2--3--------| 
E|--3---------------------|-----------------------|--3---------------------| 
Chorus 
    H          Q    Q 
G|-----------------------|---------------------|-----------------------| 
D|--0--------2-----0-----|---------------------|-----------------------| 
A|-----------------------|--3------------------|--5---------------5----| 
E|-----------------------|-----------0----3----|-------3--3--5---------| 
    Q.       Q    Q 
G|----------------------|----------------------|----------------------| 
D|----------------------|----------------------|------------2---------| 
A|------------3----2----|--3---------3----2----|--0------0-------0----| 
E|--3------3------------|---------3------------|----------------------| 
                                                ________________________ 
                                               |1.                      | 
    Q.      
G|----------------------|----------------------|------------------------|| 
D|----------------------|----------------------|-----------2-----0-----*|| 
A|--5---------5----0----|--3------2--L----0----|-----------------------*|| 
E|---------5------------|----------------------|--3---------------------|| 
  __________________________ 
 |2.                          Bridge 
G|---------------------------|----------------------|----------------------| 
D|--/5-----------------------|----------------------|----------------------| 
A|---------------------------|---------5--5------5--|--7---------7---------| 
E|------3--3--3--3--3--3--3--|--3-------------------|---------0---------0--| 
    Q.      
G|--------------------------|----------------------|----------------------| 
D|--------------------------|----------------------|----------------------| 
A|--7---------5-----5-------|------------5------5--|--3---------5------5--| 
E|---------0-----------(0)--|--3------3------------|---------3------------| 
    Q.       H 
G|----------------------|----------------------|---------------------| 
D|----------------------|----------------------|---------------------| 
A|--7---------7---------|--7---------5------5--|---------5--5--------| 
E|---------7---------7--|---------7------------|--3------------------| 
Chorus 
    H        Q    Q       Q      Q    Q 
G|---------------------|-----------------------|----------------------| 
D|---------------------|-----------------------|----------------------| 
A|--3------------------|--5---------------5----|------------3----2----| 
E|-----------0----3----|-------3--3--5---------|--3------3------------| 
    Q.       Q    Q 
G|----------------------|----------------------|----------------------| 
D|----------------------|------------2---------|----------------------| 
A|--3---------3----2----|--0------0-------0----|--5---------5----0----| 
E|---------3------------|----------------------|---------5------------| 
                                                3rd Verse 
    Q.      
G|----------------------|-----------------------|------------------------| 
D|----------------------|-----------2-----0-----|------------------0--2--| 
A|--3------2--L----0----|-----------------------|---------0--2--3--------| 
E|----------------------|--3--------------------|--3---------------------| 
    Q    Q    Q     
G|-----------------------|------------------------|------------------------| 
D|-----------------------|------------------0--2--|--0---------2-----0-----| 
A|--5---------3----5-----|---------0--2--3--------|------------------------| 
E|-----------------------|--3---------------------|------------------------| 
    Q.      
G|------------------------|-----------------------|------------------------| 
D|------------------0--2--|--0--------------------|------------------0-----| 
A|---------0--2--3--------|------------3----5-----|---------0--2--3--------| 
E|--3---------------------|-----------------------|--3---------------------| 
Chorus 
   |----3----|    |----3----| 
   Q    Q    Q    Q    Q    Q       Q.       Q    Q 
|--------------------------------|----------------------|----------------------| 
|--------------------------------|----------------------|----------------------| 
|--3----2----3----5----5----5----|--3------3------------|--5------5-------5----| 
|--------------------------------|------------0----3----|------------5---------| 
    Q.        Q    Q 
G|----------------------|----------------------|-----------------------| 
D|----------------------|----------------------|------------------7----| 
A|------------3----2----|--3---------3----2----|--0------3s--7---------| 
E|--3------3------------|---------3------------|-----------------------| 
    Q.      
G|----------------------|----------------------|-------------------------| 
D|----------------------|----------------------|-------------------------| 
A|--5---------5----0----|--3------2--L----0----|-------------------------| 
E|---------5------------|----------------------|--3----3--3--3--3--3--3--| 
 Guitar Solo 
    Q.      
G|----------------------|----------------------|----------------------| 
D|----------------------|----------------------|----------------------| 
A|--3------3--5------5--|--7---------7------7--|--7------7--5---------| 
E|----------------------|---------7------------|-------------------0--| 
    Q.      
G|----------------------|----------------------|----------------------| 
D|----------------------|----------------------|----------------------| 
A|------------5------5--|--3------3--5------5--|--7---------7---------| 
E|--3------3------------|----------------------|---------7---------7--| 
    Q.       H 
G|----------------------|----------------------|---------------------| 
D|----------------------|----------------------|---------------------| 
A|--7------7--5---------|------------5------5--|--3---------3--------| 
E|-------------------3--|--3------3------------|---------3-----------| 
      Q    Q       H        Q    Q 
G|-----------------------|----------------------|-----------5----4----| 
D|-----------------------|----------------------|---------------------| 
A|--5-----5--------------|------------3----2----|--3------------------| 
E|--------------3--------|--3------3------------|---------------------| 
    Q.       Q    Q 
G|----------------------|----------------------|----------------------| 
D|--7---------7---------|----------------------|----------------------| 
A|---------7-------7----|--5------5--5----5----|--3------2--L----0----| 
E|----------------------|----------------------|----------------------| 
Chorus 
    W                   Q.       Q    Q 
G|-------------------|----------------------|----------------------| 
D|-------------------|----------------------|----------------------| 
A|-------------------|--3------5--5------5--|--7-------------------| 
E|--3----------------|----------------------|---------0--0----0----| 
    Q.      
G|----------------------|----------------------|----------------------| 
D|----------------------|----------------------|----------------------| 
A|--7------7--5---------|------------5------5--|--3------3--5------5--| 
E|-------------------0--|--3------3------------|----------------------| 
    Q.      
G|---------------------|----------------------|------------------------| 
D|---------------------|----------------------|------------------------| 
A|--7------------------|--7------7--5---------|------------5--5--5--5--| 
E|---------0--0--------|-------------------3--|--3------3--------------| 
    Q.       Q 
G|---------------------|----------------------|-----------------------| 
D|---------------------|----------------------|-----------------------| 
A|--3---------3--------|--5-----5----5--------|------------------5----| 
E|---------3-----------|----------------------|--3------3--3----------| 
    Q.       Q    Q 
G|----------------------|----------------------|----------------------| 
D|----------------------|------------2---------|----------------------| 
A|--3------2--3----2----|--0------0-------0----|--5---------5----0----| 
E|----------------------|----------------------|---------5------------| 
    Q.       Q    Q        W 
G|----------------------|-------------------------|----------------------|------* 
D|----------------------|-------------------------|----------------------|------* 
A|--3------2--L----0----|-------------------------|--3------2--2----0----|------* 
E|----------------------|--3----3--3--3--3--3--3--|----------------------|--3---* 
                                                  rit. (slow down) 
************************************ 
| *    Natural harmonic 
| /    Slide up 
| (n)  Ghost note 
************************************