Intro/Chorus:
   Ain't nobody gonna steal this heart away 
   Ain't nobody gonna steal this heart away 
Verse 1 
     When the war is over got to get away 
     Pack my bag to no place in no time no day 
     You and I we used each other's shoulder 
     Still so young but somehow so much older 
     How can I go home and not get blown away 
Solo: Verse Chords
E|------------------------| 
B|------------------------| 
G|------------------------| 
D|--6/7---4-4/6---2-2/4---| 
A|------------------------| 
E|------------------------| 
E|------------------------| 
B|------------------------| 
G|------------------------| 
D|--6/7---4-4/6---2-2/4---| 
A|------------------------| 
E|------------------------| 
E|--------------------------------------7-----7-------------------12-----------------------------------12-12| 
B|-------------------------------------7-7-----7\----10-12-12/14-----12h14-12h14-12h14-12h4p12\10-12/14-----| 
G|-----------------------------------------------/11--------------------------------------------------------| 
D|--6-7-7/9--9-9----9h11p9----------------------------------------------------------------------------------| 
A|-------------------------11-9-7-7/9-----------------------------------------------------------------------| 
E|----------------------------------------------------------------------------------------------------------| 
E|-14h17p14---------------------------| 
B|---------17-14h17p14-12h14p12-10----| 
G|---------------------------------11-| 
D|------------------------------------| 
A|------------------------------------| 
E|------------------------------------| 
Bridge 
   You and I had our sights set on something 
   Hope this doesn't mean our days are numbered 
   I've got plans for more than a wanted man 
   All around this chaos and madness 
   Can't help feeling nothing more than sadness 
   Only choice to face it the best I can 
Verse 2 
     When the war is over got to start again 
     Try to hold a trace of what it was back then 
     You and I, we sent each other stories 
     Just a page I'm lost in all it's glory 
     How can I go home and not get blown away 
   Ain't nobody gonna steal this heart away 
   Ain't nobody gonna steal this heart away 
   Ain't nobody gonna steal this heart away 
E|------------------------------------------------| 
B|------------------------------------------------| 
G|-7-9-9/11-9-11-11/13-11-13-13/14-13-14-14/16-14-| 
D|------------------------------------------------| 
A|------------------------------------------------| 
E|------------------------------------------------| 
   Ain't nobody gonna steal this heart away 
   Ain't nobody gonna steal this heart away 
   Ain't nobody gonna steal this heart away 
Outro: 
E|---------------------------------| 
B|---------------------------------| 
G|-9u9d9--7u7d7--6u6d6-4-2-2-1-2-2-| 
D|---------------------------------| 
A|---------------------------------| 
E|---------------------------------|