G|----------------|----------------|----------------|----------------| 
D|----------------|----------------|----------------|----------------| 
A|----------------|----------------|3-3-3-3-3-3-3-3-|3-3-3-3-3-3-3-3-| 
E|3-3-3-3-3-3-3-3-|3-3-3-3-3-3-3-3-|----------------|----------------| 
G|----------------|----------------|----------------|----------------| 
D|----------------|----------------|----------------|----------------| 
A|----------------|----------------|3-3-3-3-3-3-3-3-|3-3-3-3-3-3-3-3-| 
E|3-3-3-3-3-3-3-3-|3-3-3-3-3-3-3-3-|----------------|----------------| 
G|----------------|----------------|----------------|----------------| 
D|----------------|----------------|----------------|----------------| 
A|----------------|----------------|3-3-3-3-3-3-3-3-|3-3-3-3-3-3-3-3-| 
E|3-3-3-3-3-3-3-3-|3-3-3-3-3-3-3-3-|----------------|----------------| 
G|----------------|----------------|----------------|----------------| 
D|----------------|----------------|----------------|----------------| 
A|----------------|----------------|3-3-3-3-3-3-2-1-|----------------| 
E|3-3-3-3-3-3-3-3-|3-3-3-3-3-3-3-3-|----------------|----------------| 
G|----------------|----------------|----------------|----------------| 
D|----------------|----------------|----------------|----------------| 
A|----------------|----------------|----------------|----------------| 
E|3*----3*--3-2-0*|----0*------0-2-|3*----3*--3-2-0*|----0*----------| 
G|----------------|----------------|----------------|----------------| 
D|----------------|----------------|----------------|----------------| 
A|----------------|----------------|0-3---3-2---2-0-|0-0-0-0-3-3-3-3-| 
E|3*----3*--3-2-0*|-----0*---------|----------------|----------------| 
G|----------------|----------------|----------------|----------------| 
D|----------------|----------------|----------------|----------------| 
A|----------------|----------------|----------------|----------------| 
E|3*----3*--3-2-0*|----0*------0-2-|3*----3*--3-2-0*|----0*----------| 
G|----------------|----------------|----------------|----------------| 
D|----------------|----------------|----------------|----------------| 
A|----------------|----------------|0-3---3-2---2-0-|0-0-0-0-3-3-3-3-| 
E|3*----3*--3-2-0*|-----0*---------|----------------|----------------| 
G|----------------|----------------|----------------|----------------| 
D|----------------|----------------|----------------|----------------| 
A|----------------|3---3-3----3----|5-5-5-5-5-5-5-0-|5-5-5-5-5-5-3-0-| 
E|3---3-3----3----|----------------|----------------|----------------| 
G|----------------|----------------|----------------|----------------| 
D|----------------|----------------|----------------|----------------| 
A|----------------|3---3-3----3----|5---5-5----5----|--------3-------| 
E|3---3-3----3----|----------------|----------------|5---------------| 
G|----------------|----------------|----------------|----------------| 
D|----------------|----------------|----------------|----------------| 
A|----------------|----------------|----------------|----------------| 
E|3*----3*--3-2-0*|----0*------0-2-|3*----3*--3-2-0*|----0*----------| 
G|----------------|----------------|----------------|----------------| 
D|----------------|----------------|----------------|----------------| 
A|----------------|----------------|0-3---3-2---2-0-|0-0-0-0-3-3-3-3-| 
E|3-3-3-3*--3-2-0*|-----0----------|----------------|----------------| 
G|----------------|----------------|----------------|----------------| 
D|----------------|----------------|----------------|----------------| 
A|----------------|3---3-3--0-3-0--|5-5-5-5-5-5-5-0-|5-5-5-5-5-5-3-0-| 
E|3---3-3--0-3-0--|----------------|----------------|----------------| 
G|----------------|----------------|----------------|----------------| 
D|----------------|----------------|----------------|----------------| 
A|----------------|3---3-3--0-3-0--|5-5-5-5-5-5-5-0-|5-5-5-5-5-5-3-0-| 
E|3---3-3--0-3-0--|----------------|----------------|----------------| 
G|----------------|----------------|----------------|----------------| 
D|----------------|----------------|----------------|----------------| 
A|----------------|----------------|3-3-3-3-3-3-3-3-|3-3-3-3-3-3-3-3-| 
E|3-3-3-3-3-3-3-3-|3-3-3-3-3-3-3-3-|----------------|----------------| 
G|----------------|----------------|----------------|----------------| 
D|----------------|----------------|----------------|----------------| 
A|----------------|----------------|3-3-3-3-3-3-3-3-|3-3-3-3-3-3-3-3-| 
E|3-3-3-3-3-3-3-3-|3-3-3-3-3-3-3-3-|----------------|----------------| 
G|----------------|----------------|----------------|----------------| 
D|----------------|----------------|----------------|----------------| 
A|----------------|----------------|3-3-3-3-3-3-3-3-|3-3-3-3-3-3-3-3-| 
E|3-3-3-3-3-3-3-3-|3-3-3-3-3-3-3-3-|----------------|----------------| 
G|----------------|----------------|----------------|----------------| 
D|----------------|----------------|----------------|----------------| 
A|----------------|----------------|3-3-3-3-3-3-3-3-|3-3-3-3-3-3-3-3-| 
E|3-3-3-3-3-3-3-3-|3-3-3-3-3-3-3-3-|----------------|----------------| 
G|----------------|----------------|----------------|----------------| 
D|----------------|----------------|----------------|----------------| 
A|5---------------|----------------|3-------------3-|----------------| 
E|----------------|----------------|----------------|3---------------| 
G|----------------|----------------|----------------|----------------| 
D|----------------|----------------|----------------|----------------| 
A|3-3-3-3-2-2-2-2-|0-0-0-0-0-0-0-0-|----------------|3---3-3--0-3-0--| 
E|----------------|----------------|3---3-3--0-3-0--|----------------| 
G|----------------|----------------|----------------|----------------| 
D|----------------|----------------|----------------|----------------| 
A|----------------|----------------|----------------|3---3-3--0-3-0--| 
E|5-5-5-5-5-5-5-0-|5-5-5-5-5-5-3-0-|3---3-3--0-3-0--|----------------| 
G|----------------|----------------|----------------|----------------| 
D|----------------|----------------|----------------|----------------| 
A|----------------|----------------|----------------|3---3-3--0-3-0--| 
E|5-5-5-5-5-5-5-0-|5-5-5-5-5-5-3-0-|3---3-3--0-3-0--|----------------| 
G|----------------|----------------|----------------|----------------| 
D|----------------|----------------|----------------|----------------| 
A|----------------|----------------|----------------|3---3-3--0-3-0--| 
E|5-5-5-5-5-5-5-0-|5-5-5-5-5-5-3-0-|3---3-3--0-3-0--|----------------| 
G|----------------|----------------|----------------|----------------| 
D|----------------|----------------|----------------|----------------| 
A|----------------|----------------|----------------|3---3-3--0-3-0--| 
E|5-5-5-5-5-5-5-0-|5-5-5-5-5-5-3-0-|3---3-3--0-3-0--|----------------| 
G|----------------|----------------|----------------|----------------| 
D|----------------|----------------|----------------|----------------| 
A|----------------|----------------|----------------|3---3-3--0-3-0--| 
E|5-5-5-5-5-5-5-0-|5-5-5-5-5-5-3-0-|3---3-3--0-3-0--|----------------| 
G|----------------|----------------|----------------|----------------| 
D|----------------|----------------|----------------|----------------| 
A|----------------|----------------|----------------|3---3-3--0-3-0--| 
E|5-5-5-5-5-5-5-0-|5-5-5-5-5-5-3-0-|3---3-3--0-3-0--|----------------| 
G|----------------|----------------|----------------|----------------| 
D|----------------|----------------|----------------|----------------| 
A|----------------|----------------|----------------|3---3-3--0-3-0--| 
E|5-5-5-5-5-5-5-0-|5-5-5-5-5-5-3-0-|3---3-3--0-3-0--|----------------| 
G|----------------|----------------|----------------|----------------| 
D|----------------|----------------|----------------|----------------| 
A|5---5--5--------|----------------|----------------|----------------| 
E|----------------|----------------|----------------|----------------| 
By jackwb ? first tab nuts to bolts, any corrections welcome