INTRO:
  1   2   3   4   1   2   3   4   1   2   3   4   1   2   3   4
E|3---0-------0-------------------3---0-------0-------------0-----|
B|0-------3-------3---0-----------0-------3-------3-------3---3---|
G|0-----------------------2---0--------------------------------0--|
D|----------------------------------------------------------------|
A|3-----3-3-3---------------------3-3---3-3-3---------------------|
D|----------------3-----3-3-3-3-------------------3-----3-3-------|
VERSE:
  1   2   3   4   1   2   3   4   1   2   3   4   1   2   3   4
E|3---0-------0-------------------3---0-------0-------------0-----|
B|0-------3-------3---0-------0---0-------3-------3-------3---3---|
G|------------------------2------------------------------------0--|
D|----------------------------------------------------------------|
A|3-----3-3-3---------------------3-3---3-3-3---3-----------------|
D|----------------3-----3-3-3-3-------------------3-3-3-3-3-3-3-3-|
      City papers      blow           As the morning  
                       around me      hits the sky
  Cmaj7           G       Em      A               D
  1   2   3   4   1   2   3   4   1   2   3   4   1   2   3   4
E|3---0-------0---------------------------0-----------------------|
B|0-------3-------3---0-----------2---2-3---------------3---3---3-|
G|------------------------2---0---2---2-2----------------2---2---2|
D|--------------------------------2---------------0---------------|
A|3-3---3-3-3---------------------0---------0-0-------3---2---0---|
D|----------------3-----3-0-0-------------------------------------|
      On the ocean    ships are             So am I
                      waiting high
City papers blow around me
As the morning hits the sky
On the ocean ships are waiting high
So am I
City sweeper goes around me
He don't need no reason why
If I don't seem in a hurry now
I've arrived
CHORUS:
Come on baby, won't you save me
Turn this water into wine
Love, emotion, like an ocean
How can I hold back the tide
Baby meet me on the corner
When you hear that whistle blow
If I don't seem like I oughta
The one you used to know
CHORUS
SOLO AS VERSE
I'm on high ground, put this weight down
Of one thing you can be sure
On the ocean ships are sailing
But I don't need them anymore
CHORUS x2
SOLO AS VERSE  (end as )