The verse uses an E chord and one of these riffs after each line. Sometimes it uses riff  
on the second line (minus the lead into the bridge part). 
Riff 1 
e|-------------------------| 
B|---7--5h7---5------------| 
G|----------6---4h6-4------| 
D|-------------------------| 
A|-------------------------| 
E|-------------------------| 
Riff 2 
e|------------------7-------| 
B|---7--5h7---5-7s9---7--5--| 
G|----------6---------------| 
D|--------------------------| 
A|--------------------------| 
E|--------------------------| 
Riff 3 
e|---------7--------------------------------------------| 
B|---5h7s9---5h7-5---lead into the bridge with--5h7-----| 
G|--------------------------------------------------6---| 
D|------------------------------------------------------| 
A|------------------------------------------------------| 
E|------------------------------------------------------| 
                     Riff 1 
I don't need anybody 
                     Riff 2 
I don't carry no gun 
                          Riff 1 
I don't need to feel sorry 
                          Riff 3 
For the things I have done 
Bridge: 
Everythings about to start 
I can feel it in my bones and my heart 
And I'm not even in the race 
Chorus: 
I woke up (Mmm yes I did) 
I woke up (I've been asleep too long) 
I woke up (I got woken up) 
I woke up