e|-------------------------------------------------------------------------| 
B|-------------------------------------------------------------------------| 
G|-7---7---7---7---7---7---7---7---7---7---7---7---7---7---7---7-----------| 
D|-7---7---7---7---7---7---7---7---7---7---7---7---7---7---7---7-----------| 
A|-5---5---5---5---5---5---5---5---4---4---4---4---4---4---4---4-----------| 
E|-------------------------------------------------------------------------| 
		   I can't get to sleep 
e|-------------------------------------------------------------------------| 
B|-------------------------------------------------------------------------| 
G|-5---5---5---5---5---5---5---5---5---5---5---5---5---5---5---5-----------| 
D|-5---5---5---5---5---5---5---5---5---5---5---5---5---5---5---5-----------| 
A|-3---3---3---3---3---3---3---3---2---2---2---2---2---2---2---2-----------| 
E|-------------------------------------------------------------------------| 
                I think about the    implications 
Of diving in too deep 
And possibly the complications 
Especially at night 
I worry over situations 
I know will be alright 
Perhaps its just my imagination 
e|-------------------------------------------------------------------------| 
B|-------------------------------------------------------------------------| 
G|-4---4---4---4---4---4---4---4---4---4---4---4---4---4---4---4-----------| 
D|-4---4---4---4---4---4---4---4---4---4---4---4---4---4---4---4-----------| 
A|-2---2---2---2---2---2---2---2---2---2---2---2---2---2---2---2-----------| 
E|-------------------------------------------------------------------------| 
                    Day   after    day     it     rea- 
e|-------------------------------------------------------------------------| 
B|-3---x---x---3---x---x---3---x---2---x---x---2---3---2---2---2-----------| 
G|-2---2---2---2---2---2---2---2---2---2---2---2---2---2---4---2-----------| 
D|-2---2---2---2---2---2---2---2---2---2---2---2---2---2---2---2-----------| 
A|-0---0---0---0---0---0---0---0---0---0---0---0---0---0---0---0-----------| 
E|-------------------------------------------------------------------------| 
  -ppears 
e|-------------------------------------------------------------------------| 
B|-------------------------------------------------------------------------| 
G|-4---4---4---4---4---4---4---4---4---4---4---4---4---4---4---4-----------| 
D|-4---4---4---4---4---4---4---4---4---4---4---4---4---4---4---4-----------| 
A|-2---2---2---2---2---2---2---2---2---2---2---2---2---2---2---2-----------| 
E|-------------------------------------------------------------------------| 
                      Night   after    night    my   heartbeat 
e|-------------------------------------------------------------------------| 
B|-3---x---x---3---x---x---3---x---2---x---x---2---x---x---2---x-----------| 
G|-2---2---2---2---2---2---2---2---2---2---2---2---2---2---2---2-----------| 
D|-2---2---2---2---2---2---2---2---2---2---2---2---2---2---2---2-----------| 
A|-0---0---0---0---0---0---0---0---0---0---0---0---0---0---0---0-----------| 
E|-------------------------------------------------------------------------| 
  sho------------------ws        the fear 
e|-2---x---x---2---x---x---2---x---2---x---x---2---x---x---2---x---1-------| 
B|-2---2---2---2---2---2---2---2---2---2---2---2---2---2---2---2---3-------| 
G|-4---4---4---4---4---4---4---4---3---3---3---3---3---3---3---3---4-------| 
D|-4---4---4---4---4---4---4---4---4---4---4---4---4---4---4---4---x-------| 
A|-4---4---4---4---4---4---4---4---4---4---4---4---4---4---4---4---x-------| 
E|-2---2---2---2---2---2---2---2---2---2---2---2---2---2---2---2---3-------| 
   Gho------------------------sts appe---------------ar and fade-----  
e|-3---3---3---3---3---3---3---3---3---3---3---3---3---3---3---------------| 
B|-0---0---0---0---0---0---0---0---0---0---0---0---0---0---0---------------| 
G|-0---0---0---0---0---0---0---0---0---0---0---0---0---0---0---------------| 
D|-0---0---0---0---0---0---0---0---0---0---0---0---0---0---0---------------| 
A|-0---0---0---0---0---0---0---0---0---0---0---0---0---0---0---------------| 
E|-x---x---x---x---x---x---x---x---x---x---x---x---x---x---x---------------| 
   away------ 
e|-------------------------------------------------------------------------| 
B|-3---x---x---3---x---x---3---x---2---x---x---2---x---x---2---x-----------| 
G|-2---2---2---2---2---2---2---2---2---2---2---2---2---2---2---2-----------| 
D|-2---2---2---2---2---2---2---2---2---2---2---2---2---2---2---2-----------| 
A|-0---0---0---0---0---0---0---0---0---0---0---0---0---0---0---0-----------| 
E|-------------------------------------------------------------------------| 
         Come    back   anothe---r  day 
{Solo} played over the verse/Chorus-chords 
{verse 2} 
I can't get to sleep 
I think about the implications 
Of diving in too deep 
And possibly the complications 
Especially at night 
I worry over situations 
I know will be alright 
It's just overkill 
{Chorus} 
Day after day it reappears 
Night after night my heartbeat, shows the fear 
Ghosts appear and fade away 
Ghosts appear and fade away