Standard Tuning (EADGBE) 
I'm not sure if he plays parts like the beginning in those frets or in higher frets on 
strings (because when you listen to the first slide down, it might sound like it goes 
than the open , but I'm not sure), but I decided to tab it like this, because you're  
more of the metallic sound Colin's got in that song, too (maybe because he plays it 
this, maybe because of his guitar/strings). 
E-----------------------------------------------------------------------------------| 
B--3---3s5-3-2-----------0-0h1--1s3-1-0---------------------------------------------| 
G--------------------2----------------------2-0-------------------------------------| 
D-----------------------------------------------4----4-5p4--------------------------| 
A----------------------------------------------------------5-0-5-5p2p0-5-5-2--------| 
E-----------------------------------------------------------------------------------| 
E----------------------------------------------------------------------------------| 
B-------3/5-3---------5s3----2----3------------------------------------------------| 
G--4/5--2/4-2----2s4----------------2--4-------------------------------------------| 
D--4/5-----------------------------------2--4--------------------------------------| 
A---------------------------------------------2p0----0--2-3-5-3-2------------------| 
E--------------------------------------------------------------------5-3-2---------| 
E----------------------------2-3-5-7-9-10-12-10-12-12s14--14-12p10p7-10-10(p)7(~)--| 
B----------------------2-3-5-------------------------------------------------------| 
G------------------2-4-------------------------------------------------------------| 
D------------2-4-5-----------------------------------------------------------------| 
A------2-4-5-----------------------------------------------------------------------| 
E--3-5-----------------------------------------------------------------------------| 
E--10--10---9-----5----------------------------------------------------------------| 
B--12--12--10--8--7-----------------------------------------0-2-2s3----------------| 
G--11--11---------6--------7----7-6--------4----4-3-----3-3------------------------| 
D-----------------------5-----5---------2-----2------------------------------------| 
A----------------------------------------------------------------------------------| 
E----------------------------------------------------------------------------------| 
Any suggestions/corrections to: [email protected] 
Thank you and enjoy! (: 
David