GANGGAJANG - HUNDREDS OF LANGUAGES  
e------------------------------------------------------ 
B------------------------------------------------------ 
G---11-(6X)--9-(4X)-8--(3X)--/8/6--------------------- 
D------------------------------------------------------ 
A------------------------------------------------------ 
E------------------------------------------------------ 
e------------------------------------------------------ 
B--------7--9--7----------7--9--7-------7-9-7---------- 
G---6-6--------------6-6------------6-6---------------- 
D------------------------------------------------------ 
A------------------------------------------------------ 
E------------------------------------------------------ 
RIFF 1 () 
e------------------------------------------------------ 
B---------5--------------------------------------------- 
G------6---------6--------------------------------------- 
D----6--------------6------------------------------------ 
A--4---------------------------------------------------- 
E------------------------------------------------------ 
RIFF 2 () 
e------------------------------------------------------- 
B--------5--------5-5---5--9--7--5-----5---5-9--5---7---- 
G-----6---------------6------------------6------------6-- 
D---6---------------------------------------------------- 
A-4------------------------------------------------------- 
E-------------------------------------------------------- 
e-------------------------------------------------------------- 
B----5---9---7-----5--9-7-----9-9h7----5----5----5---9----7---- 
G---------------6--------------------6--------6---------------- 
D-------------------------------------------------------------- 
A-------------------------------------------------------------- 
E-------------------------------------------------------------- 
e------------------------------------------------------ 
B--9--9h7-----5--5---5--9--7-----5--5-----5--9--------- 
G----------6-------6--------------------6-------------- 
D------------------------------------------------------ 
A------------------------------------------------------ 
E------------------------------------------------------ 
refrao () 
e------------------------------------------------------ 
B------------------------------------------------------ 
G----6----9h11h9--(6x)----13---11---9------------------ 
D------------------------------------------------------ 
A------------------------------------------------------ 
E------------------------------------------------------ 
solo 
e------------------------------------------------------ 
B---9-9-7-9-9/12--11-9-7-9----------------------------- 
G------------------------------------------------------ 
D------------------------------------------------------ 
A------------------------------------------------------ 
E------------------------------------------------------ 
e------------------------------------------------------ 
B---12--9--12-12--9/7-9-9--7--------------------------- 
G-----------------------------9--6~~------------------- 
D------------------------------------------------------ 
A------------------------------------------------------ 
E------------------------------------------------------ 
e----------------------------------------------9------- 
B---9-9-7-9-9/12--11-9-7-9---12h14h12--11--7----------- 
G------------------------------------------------------ 
D------------------------------------------------------ 
A------------------------------------------------------ 
E------------------------------------------------------ 
e------------------------------------------------------ 
B---12--9--12-12--9/7-9-9--7--------------------------- 
G-----------------------------9--6~~------------------- 
D------------------------------------------------------ 
A------------------------------------------------------ 
E------------------------------------------------------ 
pos solo () 
e------------------------------------------------------ 
B----------7------7----9---7--------------------------- 
G--6---9-------9----------------9----6----------------- 
D------------------------------------------------------ 
A------------------------------------------------------ 
E------------------------------------------------------ 
e------------------------------------------------------ 
B---15-----(2x)---------------------------------------- 
G---17h19---------17/16/15/14/13/12/11/10/9/8/7/6/----- 
D------------------------------------------------------ 
A------------------------------------------------------ 
E------------------------------------------------------ 
final  () 
legenda  
h  =  nota ligada  
/  =  slide 
( x) =  quantidade de vezes que deve ser feita a passagem 
qualquer sugestao : [email protected]