send amendments to Louisa ([email protected]) 
strokes: v=down ^=up 
Intro is played with fingers, thumb on low E string. 
When the band starts, use a pick and ignore the bass part. 
Intro 
e--------------------|-------------------| 
B--8-7-5-3-3/5-5-3-3-|-8-7-5-3-3/5-5-3-3-| 
G--------------------|-------------------| 
D--------------------|-------------------| 
A--------------------|-------------------| 
E--0-0-0----0--0-0-0-|-0-0-0----0--0-0-0-| 
e--12-10-9---------------------|-12-10-9---------------------| 
B----------12-10-12-10\7-7-8-8-|---------12-10-12-10\7-7-8-8-| 
G------------------------------|-----------------------------| 
D------------------------------|-----------------------------| 
A------------------------------|-----------------------------| 
E--0--0--0-0--0--0--0----0-0-0-|-0--0--0-0--0--0--0----0-0-0-| 
CHORDS  
       e------0-------0-------3-------|-----0-------0-------3-------|   
       B------1-------1-------0-0-0-0-|-----1-------1-------0-0-0-0-|   
       G----------------------0-0-0-0-|---------------------0-0-0-0-|   
       D------------------------0-0-0-|-----------------------0-0-0-|   
       A--0-0---0-3-3---0-------------|-0-0---0-3-3---0-------------|  
       E------------------3-3---------|-----------------3-3---------| 
strokes   v v ^ v v v ^ v v v ^ ^ v ^   v v ^ v v v ^ v v v ^ ^ v ^  
       e------0-------0-------------------3-3-----|-----0-------0-------3-------| 
       B------1-------1-------0-1-1-0-----0-0-0-0-|-----1-------1-------0-0-0-0-| 
       G--------------------0-0-0-0-0-0---0-0-0-0-|---------------------0-0-0-0-| 
       D------------------0-0-0-2-2-0-0-----0-0-0-|-----------------------0-0-0-| 
       A--0-0---0-3-3---0-2-2-0-3-3-0-2-2---------|-0-0---0-3-3---0-------------| 
       E------------------3-3---------3-3---------|-----------------3-3---------| 
strokes   v v ^ v v v ^ v v v ^ v v ^ v v ^ ^ v ^   v v ^ v v v ^ v v v ^ ^ v ^  
There's sleep in my eyes and they sting 
I should be asleep but my ears ring 
along with the hum of the fridge 
and the dogs in the street  
keep me company 
Till Three and you still haven't sung 
but visions of Zillar in my head have come 
for the song stapled onto the edge  
of the bed and Daisy  
keeps me company 
Picture this if you will shut your eyes 
I'm capturing sunlight in a jar 
Look of surprise but then she'll  
never know that the night  
lights a statue for all to see 
It's crowded now but the magnet begins 
it's mistletoe revenge dig your fingers in 
and draw blood paint a face make it stay 
locked away in my head  
to keep me company