Album: Easy
Tabbed by Rollo47 ([email protected])
This tab is 100% correct, I think. It is in Drop D tuning. If I have missed out anything, email me
Intro
G|--------------------------------|
D|--------------------------------|
A|--------------------------------|
D|5-5-6-6-00-3--3--5-5-6-6-00-3--3|
Verse
G|--------------------------------|
D|--------------------------------|
A|--------------------------------|
D|5-5-6-6-00-3--3--5-5-6-6-00-3--3|
Prechorus
G|--------------|
D|--------------|
A|--------------|
D|3----2---1----|
Chorus
G|---------------------------|
D|---------------------------|
A|---------------------------|
D|0---3---5--6-5-3--0---3---5|
Don't think there's much else to it..... This should cover it all
Anyway, as I said before, email me with corrections or comments.