1 
*******
perfromed and written by 
tabbed by Wayne, [email protected]
Drop D Tuning
intro/verse
|----------------------|
|----------------------|
|---------7------------|
|--999--5---555-777----|
chorus
|------------------------------------|
|------------------------------------|
|------------------------------------|
|--99999999/55555555-22222222--------|
"lord sheep of shepherd" bit 
|------|----------------|
|------|----------------|
|------|---------777----|
|--999-|--77-666--------|
|---------------|
|---------------|
|---------------|
|--66-777-999---|
outro
|--------|
|--------|
|--------|
|--999---|