Artist Name: 
  3
Album: Guide to better living
Tabbed By: PlevINC ([email protected])
Dropped D tuning (DADG)
Riff 1. 
G|-----------|----------|
D|-----------|----------|
A|-----------|----------|
D|-3--3--3---|-5--5--5--|
Riff 2. 
G|-----------------------------------|
D|-----------------------------------|
A|-----------------------------------|
D|-0-3-0-0-5-0-0-6-0-0-5/12-12-12-12-|
Riff 3.  
G|-----------------------------|
D|-----------------------------|
A|-----------------------------|
D|-0-3-0-0-5-0-0-6-0-0-5-0-3---| (hold the last note 4th time through)
Riff 4.
G|-------------------------------|
D|-------------------------------|
A|-------------------------------|
D|-0-3-0-0-5-0-0-6-0-0-5-0-3-0-3-|
Riff 5.
G|----------------|----------------|----------------|----------------|
D|-0--0-0-0-0-0-0-|/1--1-1-1-1-1-1-|/2--2-2-2-2-2-2-|/3--3-3-3-3-3-3-|
A|----------------|----------------|----------------|----------------|
D|----------------|----------------|----------------|----------------|
G|----------------|----------------|---------------|-----------------|
D|/4--4-4-/5--5-5-|/6--6-6-/7--7-7-|-/8-/9-/10-/11-|-/12-/13-/14-/15-|
A|----------------|----------------|---------------|-----------------|
D|----------------|----------------|---------------|-----------------|
Riff 6.
G|-----------|---------------|
D|-----------|---------------|
A|-----------|---------------|
D|-3--3--3---|-5--5--5-/12/0-|
------
Order
------
Intro:	Riff 1  (x2)
Verse1:	Riff 2 	(x8)
Chorus:	Riff 1  (x1)
	Riff 2  (x2)
	Riff 1	(x1)
Verse2:	Riff 2  (x6)
Chorus:	Riff 1	(x1)
	Riff 2	(x2)
	Riff 1	(x1)
Break:  Riff 3	(x4)
	Riff 4	(x3)
	Riff 3	(x1) -hold last note.
Guitar Solo:	Riff 5 (x1)	
Post Solo: Riff 1  (x1)
	   Riff 2  (x2)	
	   Riff 1  (x2)
	   Rest for 4
	   Riff 2  (x4)		
	   Riff 6  (x1)
That's all.  It's pretty easy to play.		
I think that it's almost 100% right.  Any comments/corrections are welcome. 
- PlevINC ([email protected])