Australia 
Title: Boundary 
Artist: Grinspoon 
 Album: Guide To Better Living 
Transcribed by Stealth ([email protected]). 
Dropped  Tuning 
INTRO / RIFF 1 
e:-------- 
b:-------- 
g:-7-6-5-- 
d:-x-x-x--      Repeat many times (Fairly fast) 
a:-5-4-3-- 
D:-------- 
RIFF 2 
e:---------------------------------------------------- 
b:---------------------------------------------------- 
g:-7-7-7---10-10-10---7-7-7----10-10-10---5-5-5-5----- 
d:-x-x-x---x--x--x----x-x-x----x--x--x----x-x-x-x---3-                                      
a:-5-5-5---8--8--8----5-5-5----8--8--8----3-3-3-3---3- 
D:--------------------------------------------------3- 
RIFF 3 
e:------------------ 
b:------------------ 
g:------------------ 
d:-5-----3-----/10--    x2 
a:-5-----3-----/10-- 
D:-5-----3-----/10-- 
BRIDGE / UNDER SOLO 
e:---------------------------- 
b:---------------------------- 
g:---------------------------- 
d:-0--0-3----0-5-3-5----5-3---     (Not too sure about this bit) 
a:-0--0-3----0-5-3-5----5-3--- 
D:-0--0-3----0-5-3-5----5-3---