Australia 
GRINSPOON : FREEZER 
LIKER BOTTLE COZY 
TABBED BY PHILL 
DROP D: 
MAIN RIFF: 
E|-------------------------------------| 
B|-------------------------------------| 
G|---------------------7--7--8--7------| 
D|--5--5--1--1--7--7---7--7--8--7------| 
A|--5--5--1--1--7--7---5--5--6--5------| 
D|--5--5--1--1--7--7-------------------| 
E|-------------------------------------| 
B|-------------------------------------| 
G|--7-6-5-7-6-5-7-6-5-7-6-5------------|got no idea what 
D|-------------------------------------|this part is.try it 
A|-------------------------------------|yourself. 
E|-------------------------------------| 
COMMENTS CORRECTIONS 
mail me [email protected]