Australia 
MORE THAN YOU ARE 
Transcribed by Bret Cook  
Intro 
E--------------------0--0--0--5--0--5--0----|  clean 
B--------------------3--3--3--3--3--3--3----| 
G--------------------2--2--2--2--2--2--2----| X 4 (on 4th time  
D--4-4-4-4--2-2-2-2--0--0--0--0--0--0--0----|      don't play the 
A--4-4-4-4--2-2-2-2--0--0--0--0--0--0--0----|      0-5-0 part) 
D--4-4-4-4--2-2-2-2--0--0--0--0--0--0--0----| 
I have shown any rhythm but its easy to play if you know the song  
E--------------------0--0--0--0--0----------| 
B--------------------3--3--3--3--3----------| 
G--------------------2--2--2--2--2----------|  dist.  
D--4-4-4-4--2-2-2-2--0--0--0--0--0------2---| 
A--4-4-4-4--2-2-2-2--0--0--0--0--0--2h4-----| 
D--4-4-4-4--2-2-2-2--0--0--0--0--0----------| 
Verse (just bass) 
G-----------------------------| 
D-----------------------------| 
A-----------------------------| 
D--444---222---000---000--222-| 
G-----------------------------| 
D--------------------0000-----| 
A-----------------------------| 
D--444---222---000--------002 | 
Then play distorted intro part 
then 
E---------------------------------0---| 
B---------------------------------3---| 
G---------------------------------2---|  dist.  
D--4-4-x-x-x-x--7-7-x-x-x-x--2-2--0---| 
A--4-4-x-x-x-x--7-7-x-x-x-x--2-2--0---| 
D--4-4-x-x-x-x--7-7-x-x-x-x--2-2--0---| 
Then stop and start from the intro with just clean guitar 
and play until end with the various parts I've typed.