Band: 
Album: Easy...I think
Tuning: Dropped-D (what? a grinspoon song in dropped-d? no way man!!!)
Tabberizerationomatorguy: the one, the only, the guy with weird hair, AzzABasS
Guitar Intro
Main Riff:
|-------------------------------------------------|
|-------------------------------------------------|
|-3h5-----3h5----------3h5-6p5-----3h5---------5--|
|-----0-0-----0-0--3h5---------0-0-----0-0-3h5----|
Chorus: (yes a chorus in an instrumental song)
                                                           /--last time add this on the end
|------------------------------------------------------| |---|
|-----------3-----------3h5p3------------3-------------| |---|
|-5-5-5-3-5---5-5-5-3-5-------5-5--5-3-5---5-5-5-3-5-1-| |-0-|
|-0-0---------0-0-------------0-0----------0-0---------| |---|
That's it, enjoy.