{Intro/Chorus chord progression - play twice} 
E -0---2----0---2----------4---4-------0---0-- 
B -2---2----2---2----------5---5-------2---0-- 
G -2---2----2---2----------6---4-------2---1-- 
D -2---4----2---4----------6---6-------2---2-- 
A -0---4----0---4----------------------0---2-- 
E -----------------------------------------0-- 
   Hey, Hey, Hey - Take me all the way. 
Hey, Hey, Hey - Take me all the way. 
{Verse chord progression} 
E -2---2---0---0----------------------2---2---0---0------------- 
B -3---3---2---0---------2--2---------3---3---2---0------------- 
G -4---4---2---1---2--4--------4--2---4---4---2---1------------- 
D -4---4---2---2----------------------4---4---2---2------------- 
A ---------0---2------------------------------0---2---5--4--0--- 
E -------------0----------------------------------0------------- 
Maybe I've been leading you nowhere, 
We won't know unto we arrive, 
Either way we're certain of one thing. 
We know we're alive. 
Maybe I'm the wrong person for you, 
Wonder if I'll ever be right 
You won't wish for anyone better 
Not after tonight. 
Hey, Hey, Hey - Take me all the way. 
Hey, Hey, Hey - Take me all the way. 
Life could never teach me its lessons 
I knew the words but I couldn't spell 
Now you've taught me forwards and backwards, 
I'm learning too well. 
Do we care if anyone sees us 
We won't be the first or the last! 
Make love wherever we please, 
The sign says "keep off the grass" 
So we sleep on the grass. 
May be unkind 
But baby, unwind. 
You're too tight 
You can lose your grip tonight. 
Maybe I'm the wrong person for you, 
Wonder if I'll ever be right 
You won't wish for anyone better 
Not after tonight. 
Hey, Hey, Hey - Take me all the way 
Hey, Hey, Hey - Take me all the way 
Hey, Hey, Hey - Take me all the way 
Hey, Hey, Hey - Take me all the way