{Intro - play twice} 
D |--------------------------|--------------------------------| 
A |:--5--4---7--4--4--2--2--:|-----7--4---7--4---7--4---7--4-:| 
E |---3--2---5--2--2--0--0---|-----5--2---5--2---5--2---5--2--| 
{Verse/Chorus Riff} 
A ----4-----4--4--2--2--|----4-----4--4--2--2--|----4-----4--4--2--2--| 
E -0--2--0--2--2--0--0--|-0--2--0--2--2--0--0--|-0--2--0--2--2--0--0--| 
   I'm just trying to     do the best I          can. 
{continue with riff} 
If you don't approve that's just too bad. 
B |-4----//--------------------------|-------4-------//----------7----//----| 
G |-4----//--------------------------|-------4-------//----------6----//----| 
D |-4----//---------4--4--4-----4--2-|-------4-------//----------4----//----| 
A |-2----//---------4--4--4-----4--2-|-------2-------//---------------------| 
E |-----------------2--2--2--0--2--0-|--------------------------------------| 
    I'll get by somehow,               While you watch from your ivory tower. 
A ----4-----4--4--2--2--|----4-----4--4--2--2--| 
E -0--2--0--2--2--0--0--|-0--2--0--2--2--0--0--| 
   See, how you feel is   no big deal to me. 
A ----4-----4--4--2--2--|----4-----4-----4-----4--| 
E -0--2--0--2--2--0--0--|-0--2--0--2--0--2--0--2--| 
Do you think that I will just stand by 
While you pontificate from up on high? 
Your words fall on deaf ears 
No-one's heard of you down here 
So turn cartwheels, its no big deal to me. 
E |-1---//---------------0---//---------------------------------------------| 
B |-0---//---------------0---//---------------------------------------------| 
G |-0---//---------------0---//---------------------------------------------| 
D |-0---//---------------2---//-------4--4--4--4--4--4--4--4--4--4--4--4--4-| 
A |-2---//---------------2---//-------4--4--4--4--4--4--4--4--4--4--4--4--4-| 
E |-3---//---------------0---//-------2--2--2--0--0--0--2--0--2--0--2--2--2-| 
    Though you pour your scorn on all below 
No-one cares so there's nowhere to go.   Let go. 
One day soon you'll have to understand 
You cannot dictate the way I am. 
I could talk to you 
But I've got better things to do 
And how you feel is no big deal to me. 
Copyright EMI Music Publishing; reprinted with kind permission. 
Transcribed by Brad Launikonis 
Lyrics only version 
Printable version 
            Please mail any comments / suggestions / submissions to 
                          [email protected] 
                                Blue Cave Index 
                           Guitar Archive main page 
                                 My home page 
                      Last updated Wednesday, May 14, 1997 
-------------------------------------------------------------------------------- 
                   Monash University Personal Page Disclaimer 
This is a personal page published by the author.  The ideas and information 
expressed on it have not been approved or authorised by Monash University 
either explicitly or impliedly.  In no event shall Monash University be liable 
for any damages whatsoever resulting from any action arising in connection with 
the use of this information or its publication, including any action for 
infringement of copyright or defamation.