Obs.: Use algum efeito, de preferência o CHORUS, para dar mais brilho 
      ao som. Ouça a música para facilitar. 
A afinação é padrão 
e|--12-------12---|----------------------------| 
B|--12-------10---|----------------------------| 
G|--9--------9----|----------------------------| 
D|----------------|------0---0-2----2-2-0-2----| 
A|----------------|--2-2---2------2------------| 
E|----------------|----------------------------| 
ACORDES do meio e ponte para o refrão (algumas notas não tenho certeza) 
e|----------------------------------------------| 
B|-5------------------------------5-------------| 
G|-4------------------------------4-------------| 
D|-2------0---2--------2-----2----2-------0---2-| 
A|----0h2---2------0h2---0h2----------0h2---2---| 
E|--------------0--------------0----------------| 
Refrão 
e|-------------|-----------------------------------| 
B|-9-9-7-9-7~--|-4b5r4b5r4b5r4~-xx-xx-7h9-999-77-5-| 
G|-9-9-7-9-7~--|-4b5r4b5r4b5r4~-xx-xx-7h9-999-77-6-| 
D|-------------|-----------------------------------| 
A|-------------|-----------------------------------| 
E|-------------|-----------------------------------| 
_______________________________________________________ 
Contribuição: Március Zenko Veloso([email protected])