verses 
e|------------------------------------------------------------------------------| 
B|------------------------------------------------------------------------------| 
G|*--5-5-3-3--5-5--3-3-3-------------------------------------------------------*| 
D|*--5-5-3-3--5-5--3-3-3-------------------------------------------------------*| 
A|---3-3-1-1--3-3--1-1-1--------------------------------------------------------| 
E|------------------------------------------------------------------------------| 
course 
e|------------------------------------------------------------------------------| 
B|------------------------------------------------------------------------------| 
G|*--5-5--3-3--7-7-7---3-3-3---------------------------------------------------*| 
D|*--5-5--3-3--7-7-7---3-3-3---------------------------------------------------*| 
A|---3-3--1-1--5-5-5---1-1-1----------------------------------------------------| 
E|------------------------------------------------------------------------------| 
just after course 
    "if you think you need it    heres the place to beat it" 
e|------------------------------------------------------------------------------| 
B|------------------------------------------------------------------------------| 
G|*---5-5--3-3--x--5-5------------5-5--3-3--x--5-5-----------------------------*| 
D|*---5-5--3-3--x--5-5------------5-5--3-3--x--5-5-----------------------------*| 
A|----3-3--1-1--x--3-3------------3-3--1-1--x--3-3------------------------------| 
E|------------------------------------------------------------------------------| 
little solo thing, drums and bass in backround 
e|----------12---13---12--------------------------------------------------------|x4 
B|-------------13---------13----------------------------------------------------| 
G|*-------12--------12---------------------------------------------------------*| 
D|*----------------------------------------------------------------------------*| 
A|------------------------------------------------------------------------------| 
E|------------------------------------------------------------------------------| 
     if you think you want it     just come out and say it 
e|------------------------------------------------------------------------------| 
B|------------------------------------------------------------------------------| 
G|*---5-5--3-3--x--5-5~------------5-5--3-3--x--5-5~---------------------------*| 
D|*---5-5--3-3--x--5-5~------------5-5--3-3--x--5-5~---------------------------*| 
A|----3-3--1-1--x--3-3~------------3-3--1-1--x--3-3~----------------------------| 
E|------------------------------------------------------------------------------| 
Interlude 
e|------------------------------------------------------------------------------| 
B|------------------------------------------------------------------------------| 
G|*--5-5-3-3--5----------------------------------------------------------------*| 
D|*--5-5-3-3--5---------3------------------------------------------------------*| 
A|---3-3-1-1--3---3-1-3---------------------------------------------------------| 
E|------------------------------------------------------------------------------| 
  repeat here once, on second time, play this  
e|------------------------|-------------------------------------------------------|x2 
B|------------------------|-------------------------------------------------------| 
G|*--5-5-3-3--5-5--3-3-3-*|------------------------------------------------------*| 
D|*--5-5-3-3--5-5--3-3-3-*|---------3--------------------------------------------*| 
A|---3-3-1-1--3-3--1-1-1--|---3-1-3-----------------------------------------------| 
E|------------------------|-------------------------------------------------------| 
after that 
e|------------------------------------------------------------------------------| 
B|------------------------------------------------------------------------------| 
G|*--5-5--3-3--7-7-7---3-3-3---------------------------------------------------*| 
D|*--5-5--3-3--7-7-7---3-3-3---------------------------------------------------*| 
A|---3-3--1-1--5-5-5---1-1-1----------------------------------------------------| 
E|------------------------------------------------------------------------------| 
     if you think you want it     just come out and say it, it aint pretty 
e|------------------------------------------------------------------------------| 
B|------------------------------------------------------------------------------| 
G|*---5-5--3-3--x--5-5~------------5-5--3-3--x--5-5~---------------------------*| 
D|*---5-5--3-3--x--5-5~------------5-5--3-3--x--5-5~---------------------------*| 
A|----3-3--1-1--x--3-3~------------3-3--1-1--x--3-3~----------------------------| 
E|------------------------------------------------------------------------------|