Transcribed: 25 June 2005 
Notes:  - nice and easy song to play along with - all 
open chords, so nice and easy for people starting to play (however 
you will need a capo). During the  part you can hit extra notes 
here and there, the notes transcribed below and just the main ones 
played throughout the verses. 
VERSES: 
E-|-------------------------------------------------0------|- 
B-|-------------------------------------------------1------|- 
G-|-0----------------0---------------0--------------2------|- 
D-|-2-------0h2------2-------0h2-----2------0h2-----0--etc-|- 
A-|-2--0h2-----------2--0h2----------2--0h2---------3------|- 
E-|-0------------0---0------------0--0-----------0---------|- 
CHORUS CHORDS: 
E-|-0---0---3--|- 
B-|-1---1---3--|- 
G-|-2---0---0--|- 
D-|-2---2---0--|- 
A-|-0---3---2--|- 
E-|---------3--|- 
BRIDGE CHORDS: 
E-|-----0---0---3---3---|- 
B-|-0---1---1---3---3---|- 
G-|-0---2---0---0---0---|- 
D-|-2---2---2---0---0---|- 
A-|-2---0---3---2---x---|- 
E-|-0-----------3---2---|- 
E-|---------------------------------------------------- 
B-|---------------------------------------------------- 
G-|---------------------------------------------------- 
D-|---------------------------------------------------- 
A-|---------------------------------------------------- 
E-|---------------------------------------------------- 
E-|---------------------------------------------------- 
B-|---------------------------------------------------- 
G-|---------------------------------------------------- 
D-|---------------------------------------------------- 
A-|---------------------------------------------------- 
E-|---------------------------------------------------- 
E-|---------------------------------------------------- 
B-|---------------------------------------------------- 
G-|---------------------------------------------------- 
D-|---------------------------------------------------- 
A-|---------------------------------------------------- 
E-|---------------------------------------------------- 
E-|---------------------------------------------------- 
B-|---------------------------------------------------- 
G-|---------------------------------------------------- 
D-|---------------------------------------------------- 
A-|---------------------------------------------------- 
E-|---------------------------------------------------- 
E-|---------------------------------------------------- 
B-|---------------------------------------------------- 
G-|---------------------------------------------------- 
D-|---------------------------------------------------- 
A-|---------------------------------------------------- 
E-|---------------------------------------------------- 
E-|---------------------------------------------------- 
B-|---------------------------------------------------- 
G-|---------------------------------------------------- 
D-|---------------------------------------------------- 
A-|---------------------------------------------------- 
E-|----------------------------------------------------