Jet - Cold Hard Bitch 
Tabbed by: ELvis Christ 
Intro riffs 
----guitar 1----------|----guitar 2--------------------- 
----------------------|--------------------------------- 
----------------------|-----76--776---------------------
-7--------------------|-----77--777---------------------
----------------------|-----00--0000003^0--------------- 
---5-5-5-5-5-5-etc.---|--------------------------------- 
then enter bass 
then enter drums 
Second Intro Riff	      
------------------------------------------------------- 
---------------------------------------------------- 
------------------------------------------------------- 
-2-4-2-4--5-4-2-4-2-5-4-etc.--------------------- 
-0-0-0-0--0-0-0-0-0-0-0--------------------------------- 
------------------------------------------------------- 
Main riff 
---------------|--------------------------------------- 
---------------|-3-------------------------------------- 
-2--2-2--------|-2--2---------------------------------------- 
-2--2-2--------|-0--2---------------------------------------- 
-0--0-0-0-3-0-3|-0--0---------------------------------------- 
---------------|----------------------------------------- 
RIFF 1 
------------------------------------------------------- 
-3--3-3--3-3--3-3---3---3---3---3---------------------- 
-2--2-2--2-2--2-2---2---2---2---2---------------------- 
-0--0-0--0-0--0-0---0---0---0---0---------------------- 
-0--0-0------------------------------------------------ 
---------2-0--2-0---2---0---2---0---------------------- 
RIFF 2 
------------------------------------------------------- 
-------3--3--3--3-------------------------------------- 
-2--2--0--2--2--0---2---------------------------------- 
-2--2--0--0--0--0---2---------------------------------- 
-0--0--2--0--0--2---0---------------------------------- 
----3--3--------3-------------------------------------- 
Intro: 
- Intro riffs 
- Second intro riff 
- Main riff xfour 
Verse: 
Gotta leave town, gotta another appointment, (main riff without ) 
Spend all my rent, girl you know I enjoyed it, (main riff without ) 
Gonna hang around till there's nobody dancing, 
 + RIFF 1 
I Wanna hold hands and talk about a little place alright 
Cold hard bitch, just a kiss on the lips, and I was on my knees, my lady give me, 
Cold hard bitch, she was shaking her hips, and that was all that I need, my lady give me, 
Cold hard bitch, just a kiss on the lips, and I was on my knees 
Interlude: 
- A followed by main riff 
Verse 2: 
Gonna check her out, she's my latest attraction, (main riff without ) 
Gonna hang around, wanna get a reaction, yeah! (main riff without ) 
Wanna take her home cause she's over romantic, 
 + RIFF 1	 
Don't wanna hold hands and talk about a little place, alright! 
Cold hard bitch, just a kiss on the lips, and I was on my knees, my lady give me, 
Cold hard bitch, she was shaking her hips, and that was all that I need, my lady give me, 
Cold hard bitch, just a kiss on the lips, and I was on my knees 
RIFF 2 
Yeah my lady! 
Yeah my lady! 
Yeah my lady! 
then Second Intro Riff 
Yeah!! 
Cold hard bitch, just a kiss on the lips, and I was on my knees, my lady give me, 
Cold hard bitch, she was shaking her hips, and that was all that I need, my lady give me, 
Cold hard bitch, just a kiss on the lips, and I was on my knees, my lady give me,