Tabbed by: Jon Blank 
::This tab focuses completely on the first guitar, there isn't a second on this tab:: 
This is all my work, if you see a possible error, please tell me: 
                                            [email protected] 
x= muted s= slide p= pull off 
Intro  (note that the intro changes a little the second time) 
e|---------------------|-----------------| 
B|---------------------|-----------------| 
G|--5-7-7-5-7-5-5-12-12|5-7-7-5-7-5-5----| 
D|--5-7-7-5-7-5-5-12-12|5-7-7-5-7-5-5----| 
A|--3-5-5-3-5-3-3-10-10|3-5-5-3-5-3-3-5-5| 
E|---------------------|--------------3-3| 
e|---------------------|-----------------| 
B|--5-7-7-5-7-5-5------|5-7-7-5-7-5-5----| 
G|--5-7-7-5-7-5-5-12-12|5-7-7-5-7-5-5----| 
D|--5-7-7-5-7-5-5-12-12|5-7-7-5-7-5-5----| 
A|--3-5-5-3-5-3-3-10-10|3-5-5-3-5-3-3-5-5| 
E|---------------------|--------------3-3| 
Verse (I'm not completely sure if that last part is "What's your name?") 
e|-------------------|-----------------|-----------------|-------| 
B|-------------------|-----------------|-----------------|-------| 
G|----4-----7--------|--4-----7--------|--4-----7--------|-------| 
D|--7-----7---4-4-5-5|7-----7---4-4-5-5|7-----7---4-4-5-5|9-9-9-9| 
A|--5---5-----2-2-3-3|5---5-----2-2-3-3|5---5-----2-2-3-3|7-7-7-7| 
E|-------------------|-----------------|-----------------|0-0-0-0| 
Chorus (This part was a little tricky for me to tab, so it may not be 100% correct, 
but it sounds right) 
*try to figure out the timing yourself, I can't tab out the timing well* 
 Spinning away all my time 
e|---------|-------|-----------|-----------| 
B|---------|-------|-----------|-----------| 
G|--x-4-x-4|x-2-x-2|x--10-x--10|x--10s11s10| 
D|--7-7-7-7|5-5-5-5|12-12-12-12|12-12-12-12| 
A|--5-5-5-5|3-3-3-3|11-11-11-11|11-11-11-11| 
E|---------|-------|-----------|-----------| 
            ^                   ^ 
           double-strum the arrowed chords 
 Say whatever you say, cause I don't mind 
e|---------|-------|-----------|-----------| 
B|---------|-------|-----------|-----------| 
G|--x-4-x-4|x-2-x-2|x--10-x--10|x--10s11s10| 
D|--7-7-7-7|5-5-5-5|12-12-12-12|12-12-12-12| 
A|--5-5-5-5|3-3-3-3|11-11-11-11|11-11-11-11| 
E|---------|-------|-----------|-----------| 
            ^                   ^ 
 Hey roll over DJ, if you don't mind... 
e|---------|-------|-----------|-----------------| 
B|---------|-------|-----------|-----------------| 
G|--x-4-x-4|x-2-x-2|x--10-x--10|x--10-x--10-x--11| 
D|--7-7-7-7|5-5-5-5|12-12-12-12|12-12-12-12-12-12| 
A|--5-5-5-5|3-3-3-3|11-11-11-11|11-11-11-11-11-11| 
E|---------|-------|-----------|-----------------| 
            ^                   ^     ^   
         The last phrase of the chorus has a really strange off/on beat pattern, 
         listen to it to master it because it would be confusing if I tabbed it. 
Fill (play between first chorus and second verse) 
e|---------------------|-----------------| 
B|--5-7-7-5-7-5-5------|5-7-7-5-7-5-5----| 
G|--5-7-7-5-7-5-5-12-12|5-7-7-5-7-5-5----| 
D|--5-7-7-5-7-5-5-12-12|5-7-7-5-7-5-5----| 
A|--3-5-5-3-5-3-3-10-10|3-5-5-3-5-3-3-5-5| 
E|---------------------|--------------3-3| 
The Bridge is just the chorus only sharper, I don't know how to play the solo 
Outro 
e|---------------------|-----------------| 
B|--5-7-7-5-7-5-5------|5-7-7-5-7-5-5----| 
G|--5-7-7-5-7-5-5-12-12|5-7-7-5-7-5-5----| 
D|--5-7-7-5-7-5-5-12-12|5-7-7-5-7-5-5-7-7| 
A|--3-5-5-3-5-3-3-10-10|3-5-5-3-5-3-3-7-7| 
E|---------------------|--------------5-5|