Tabbed by: Elvis Christ 
Intro 
----------------------------------------------- 
----------------------------------------------- 
-----2-----2-----5p2----------2---------------- 
---2---2-----2-------5------2---2----2--------- 
-0-------0---------------0--------0------------ 
-----------------------------------------3--5-- 
(Alternate intro - easier) 
(---------------------------) 
(---------------------------) 
(-----2---------------------) 
(---2---2---2---------------) 
(-0-------0---0---3p0-------) 
(---------------------3-----) 
Intro, then  
Verse: 
Hey kids, you did it all yourselves, you'll never change the world, so what you think about that 
Hey dad, the suit is on your back, so take your boots off my neck,and get back to your money stack 
Interlude 
---------------------------------------- 
-------3---3--3--3--------------------------- 
-2-2---2---0--0--0--2--2------------------------- 
-2-2---0---0--0--0--2--2------------------------- 
-0-0-3-----2--0--2--0--0------------------------- 
-----------3--0--3-------------------------- 
Chorus: 
Hey kids, fake it, I saw you wearing flares, 
Turning, to ***, used to have long hair 
Verse: 
Hailed man, remember Vietnam, you hated Vietnam, but you dig Afghanistan 
Hey kids, you did it all yourselves, you can't turn around now, no no now we were someone else 
Interlude 
Chorus: 
Hey kids, fake it, we'll all see you in hell, 
Woo hoo hoo hoo hoo, hoo hoo hoo, hoo hoo hoo hoo x4 
Solo Part 
------------------------------------------------ 
------------------------------------------------ 
-----2-----2-----5p2----------2----------5p2---- 
---2---2-----2-------5------2---2----2--------5- 
-0-------0---------------0--------0------------- 
------------------------------------------------ 
----------------------------------------------- 
----------------------------------------------- 
---2-2--0--2-2-----5p2----------------------------------- 
---2-2--0--2-2---------5------------------------------ 
-0-------------(0)--------------------------------- 
----------------------------------------------- 
-----------------------------8------------------ 
-10--10--8--10--10-10--8h10--------------------------------- 
----------------------------------------------- 
----------------------------------------------- 
----------------------------------------------- 
----------------------------------------------- 
----------------------------------------------------- 
----------------------------------------------------- 
-2--2--2--2-2-------------------------2-------------- 
-2--2--2--2-2-------xwhatever---------2-let-ring----- 
-0--0--0--0-0-------------------------0-------------- 
---------------3------------------------------------- 
Chorus: 
Woo hoo hoo hoo hoo, hoo hoo hoo, hoo hoo hoo hoo x4 
End -